ISO-10303-21;
HEADER;
/* Generated by software containing ST-Developer
 * from STEP Tools, Inc. (www.steptools.com) 
 */

FILE_DESCRIPTION(
/* description */ ('Alibre Inc.'),
/* implementation_level */ '2;1');

FILE_NAME(
/* name */ 'export-76AFABA6-E5C5-45D4-A702-2017FBAD92E1',
/* time_stamp */ '2021-10-30T10:34:23-04:00',
/* author */ (''),
/* organization */ (''),
/* preprocessor_version */ 'ST-DEVELOPER v17',
/* originating_system */ 'Alibre',
/* authorisation */ '');

FILE_SCHEMA (('AUTOMOTIVE_DESIGN'));
ENDSEC;

DATA;
#10=STYLED_ITEM('NAME_0',(#18),#279);
#11=MECHANICAL_DESIGN_GEOMETRIC_PRESENTATION_REPRESENTATION('NAME_0',(#10),
#33);
#12=COLOUR_RGB('',0.96078431372549,0.96078431372549,0.964705882352941);
#13=FILL_AREA_STYLE_COLOUR('NAME_0',#12);
#14=FILL_AREA_STYLE('NAME_0',(#13));
#15=SURFACE_STYLE_FILL_AREA(#14);
#16=SURFACE_SIDE_STYLE('NAME_0',(#15));
#17=SURFACE_STYLE_USAGE(.POSITIVE.,#16);
#18=PRESENTATION_STYLE_ASSIGNMENT((#17));
#19=PRODUCT_DEFINITION_CONTEXT('part definition',#26,'design');
#20=SHAPE_DEFINITION_REPRESENTATION(#21,#280);
#21=PRODUCT_DEFINITION_SHAPE('PRODUCT_VERSION_ID',
'PRODUCT_VERSION_DESCR',#22);
#22=PRODUCT_DEFINITION('PRODUCT_VERSION_ID','PRODUCT_VERSION_DESCR',#23,
#19);
#23=PRODUCT_DEFINITION_FORMATION_WITH_SPECIFIED_SOURCE(
'PRODUCT_VERSION_ID','PRODUCT_VERSION_DESCR',#28,.MADE.);
#24=PRODUCT_RELATED_PRODUCT_CATEGORY('part','part',(#28));
#25=APPLICATION_PROTOCOL_DEFINITION('Draft International Standard',
'automotive_design',1994,#26);
#26=APPLICATION_CONTEXT('automotive_Design');
#27=PRODUCT_CONTEXT('3D Mechanical Parts',#26,'mechanical');
#28=PRODUCT('','BarL_1','',(#27));
#29=(
LENGTH_UNIT()
NAMED_UNIT(*)
SI_UNIT(.MILLI.,.METRE.)
);
#30=(
NAMED_UNIT(*)
PLANE_ANGLE_UNIT()
SI_UNIT($,.RADIAN.)
);
#31=(
NAMED_UNIT(*)
SI_UNIT($,.STERADIAN.)
SOLID_ANGLE_UNIT()
);
#32=UNCERTAINTY_MEASURE_WITH_UNIT(LENGTH_MEASURE(1.E-6),#29,
'DISTANCE_ACCURACY_VALUE',
'Maximum model space distance between geometric entities at asserted c
onnectivities');
#33=(
GEOMETRIC_REPRESENTATION_CONTEXT(3)
GLOBAL_UNCERTAINTY_ASSIGNED_CONTEXT((#32))
GLOBAL_UNIT_ASSIGNED_CONTEXT((#31,#30,#29))
REPRESENTATION_CONTEXT('ID1','3D')
);
#34=CIRCLE('',#185,1.58750000000001);
#35=CIRCLE('',#186,1.58750000000001);
#36=CIRCLE('',#188,1.5875);
#37=CIRCLE('',#189,1.5875);
#38=CIRCLE('',#191,1.58749999999998);
#39=CIRCLE('',#192,1.58749999999998);
#40=CYLINDRICAL_SURFACE('',#184,1.58750000000001);
#41=CYLINDRICAL_SURFACE('',#187,1.5875);
#42=CYLINDRICAL_SURFACE('',#190,1.58749999999998);
#43=VERTEX_POINT('',#233);
#44=VERTEX_POINT('',#234);
#45=VERTEX_POINT('',#236);
#46=VERTEX_POINT('',#238);
#47=VERTEX_POINT('',#242);
#48=VERTEX_POINT('',#244);
#49=VERTEX_POINT('',#248);
#50=VERTEX_POINT('',#250);
#51=VERTEX_POINT('',#257);
#52=VERTEX_POINT('',#259);
#53=VERTEX_POINT('',#262);
#54=VERTEX_POINT('',#264);
#55=VERTEX_POINT('',#267);
#56=VERTEX_POINT('',#269);
#57=VECTOR('',#196,1.);
#58=VECTOR('',#197,1.);
#59=VECTOR('',#198,1.);
#60=VECTOR('',#199,1.);
#61=VECTOR('',#201,1.);
#62=VECTOR('',#202,1.);
#63=VECTOR('',#203,1.);
#64=VECTOR('',#205,1.);
#65=VECTOR('',#206,1.);
#66=VECTOR('',#207,1.);
#67=VECTOR('',#209,1.);
#68=VECTOR('',#210,1.);
#69=LINE('',#232,#57);
#70=LINE('',#235,#58);
#71=LINE('',#237,#59);
#72=LINE('',#239,#60);
#73=LINE('',#241,#61);
#74=LINE('',#243,#62);
#75=LINE('',#245,#63);
#76=LINE('',#247,#64);
#77=LINE('',#249,#65);
#78=LINE('',#251,#66);
#79=LINE('',#253,#67);
#80=LINE('',#254,#68);
#81=EDGE_CURVE('',#43,#44,#69,.T.);
#82=EDGE_CURVE('',#45,#44,#70,.T.);
#83=EDGE_CURVE('',#46,#45,#71,.T.);
#84=EDGE_CURVE('',#46,#43,#72,.T.);
#85=EDGE_CURVE('',#44,#47,#73,.T.);
#86=EDGE_CURVE('',#48,#47,#74,.T.);
#87=EDGE_CURVE('',#45,#48,#75,.T.);
#88=EDGE_CURVE('',#47,#49,#76,.T.);
#89=EDGE_CURVE('',#50,#49,#77,.T.);
#90=EDGE_CURVE('',#48,#50,#78,.T.);
#91=EDGE_CURVE('',#49,#43,#79,.T.);
#92=EDGE_CURVE('',#50,#46,#80,.T.);
#93=EDGE_CURVE('',#51,#51,#34,.T.);
#94=EDGE_CURVE('',#52,#52,#35,.T.);
#95=EDGE_CURVE('',#53,#53,#36,.T.);
#96=EDGE_CURVE('',#54,#54,#37,.T.);
#97=EDGE_CURVE('',#55,#55,#38,.T.);
#98=EDGE_CURVE('',#56,#56,#39,.T.);
#99=ORIENTED_EDGE('',*,*,#81,.T.);
#100=ORIENTED_EDGE('',*,*,#82,.F.);
#101=ORIENTED_EDGE('',*,*,#83,.F.);
#102=ORIENTED_EDGE('',*,*,#84,.T.);
#103=ORIENTED_EDGE('',*,*,#85,.T.);
#104=ORIENTED_EDGE('',*,*,#86,.F.);
#105=ORIENTED_EDGE('',*,*,#87,.F.);
#106=ORIENTED_EDGE('',*,*,#82,.T.);
#107=ORIENTED_EDGE('',*,*,#88,.T.);
#108=ORIENTED_EDGE('',*,*,#89,.F.);
#109=ORIENTED_EDGE('',*,*,#90,.F.);
#110=ORIENTED_EDGE('',*,*,#86,.T.);
#111=ORIENTED_EDGE('',*,*,#91,.T.);
#112=ORIENTED_EDGE('',*,*,#84,.F.);
#113=ORIENTED_EDGE('',*,*,#92,.F.);
#114=ORIENTED_EDGE('',*,*,#89,.T.);
#115=ORIENTED_EDGE('',*,*,#93,.T.);
#116=ORIENTED_EDGE('',*,*,#94,.F.);
#117=ORIENTED_EDGE('',*,*,#95,.T.);
#118=ORIENTED_EDGE('',*,*,#96,.F.);
#119=ORIENTED_EDGE('',*,*,#97,.T.);
#120=ORIENTED_EDGE('',*,*,#98,.F.);
#121=ORIENTED_EDGE('',*,*,#97,.F.);
#122=ORIENTED_EDGE('',*,*,#95,.F.);
#123=ORIENTED_EDGE('',*,*,#93,.F.);
#124=ORIENTED_EDGE('',*,*,#81,.F.);
#125=ORIENTED_EDGE('',*,*,#91,.F.);
#126=ORIENTED_EDGE('',*,*,#88,.F.);
#127=ORIENTED_EDGE('',*,*,#85,.F.);
#128=ORIENTED_EDGE('',*,*,#98,.T.);
#129=ORIENTED_EDGE('',*,*,#96,.T.);
#130=ORIENTED_EDGE('',*,*,#94,.T.);
#131=ORIENTED_EDGE('',*,*,#92,.T.);
#132=ORIENTED_EDGE('',*,*,#83,.T.);
#133=ORIENTED_EDGE('',*,*,#87,.T.);
#134=ORIENTED_EDGE('',*,*,#90,.T.);
#135=EDGE_LOOP('',(#99,#100,#101,#102));
#136=EDGE_LOOP('',(#103,#104,#105,#106));
#137=EDGE_LOOP('',(#107,#108,#109,#110));
#138=EDGE_LOOP('',(#111,#112,#113,#114));
#139=EDGE_LOOP('',(#115));
#140=EDGE_LOOP('',(#116));
#141=EDGE_LOOP('',(#117));
#142=EDGE_LOOP('',(#118));
#143=EDGE_LOOP('',(#119));
#144=EDGE_LOOP('',(#120));
#145=EDGE_LOOP('',(#121));
#146=EDGE_LOOP('',(#122));
#147=EDGE_LOOP('',(#123));
#148=EDGE_LOOP('',(#124,#125,#126,#127));
#149=EDGE_LOOP('',(#128));
#150=EDGE_LOOP('',(#129));
#151=EDGE_LOOP('',(#130));
#152=EDGE_LOOP('',(#131,#132,#133,#134));
#153=FACE_BOUND('',#135,.T.);
#154=FACE_BOUND('',#136,.T.);
#155=FACE_BOUND('',#137,.T.);
#156=FACE_BOUND('',#138,.T.);
#157=FACE_BOUND('',#139,.T.);
#158=FACE_BOUND('',#140,.T.);
#159=FACE_BOUND('',#141,.T.);
#160=FACE_BOUND('',#142,.T.);
#161=FACE_BOUND('',#143,.T.);
#162=FACE_BOUND('',#144,.T.);
#163=FACE_BOUND('',#145,.T.);
#164=FACE_BOUND('',#146,.T.);
#165=FACE_BOUND('',#147,.T.);
#166=FACE_BOUND('',#148,.T.);
#167=FACE_BOUND('',#149,.T.);
#168=FACE_BOUND('',#150,.T.);
#169=FACE_BOUND('',#151,.T.);
#170=FACE_BOUND('',#152,.T.);
#171=ADVANCED_FACE('',(#153),#272,.T.);
#172=ADVANCED_FACE('',(#154),#273,.T.);
#173=ADVANCED_FACE('',(#155),#274,.T.);
#174=ADVANCED_FACE('',(#156),#275,.T.);
#175=ADVANCED_FACE('',(#157,#158),#40,.F.);
#176=ADVANCED_FACE('',(#159,#160),#41,.F.);
#177=ADVANCED_FACE('',(#161,#162),#42,.F.);
#178=ADVANCED_FACE('',(#163,#164,#165,#166),#276,.T.);
#179=ADVANCED_FACE('',(#167,#168,#169,#170),#277,.F.);
#180=AXIS2_PLACEMENT_3D('',#231,#195,$);
#181=AXIS2_PLACEMENT_3D('',#240,#200,$);
#182=AXIS2_PLACEMENT_3D('',#246,#204,$);
#183=AXIS2_PLACEMENT_3D('',#252,#208,$);
#184=AXIS2_PLACEMENT_3D('',#255,#211,#212);
#185=AXIS2_PLACEMENT_3D('',#256,#213,#214);
#186=AXIS2_PLACEMENT_3D('',#258,#215,#216);
#187=AXIS2_PLACEMENT_3D('',#260,#217,#218);
#188=AXIS2_PLACEMENT_3D('',#261,#219,#220);
#189=AXIS2_PLACEMENT_3D('',#263,#221,#222);
#190=AXIS2_PLACEMENT_3D('',#265,#223,#224);
#191=AXIS2_PLACEMENT_3D('',#266,#225,#226);
#192=AXIS2_PLACEMENT_3D('',#268,#227,#228);
#193=AXIS2_PLACEMENT_3D('',#270,#229,$);
#194=AXIS2_PLACEMENT_3D('',#271,#230,$);
#195=DIRECTION('',(0.,-1.,0.));
#196=DIRECTION('',(0.,0.,1.));
#197=DIRECTION('',(1.,0.,0.));
#198=DIRECTION('',(0.,0.,1.));
#199=DIRECTION('',(1.,0.,0.));
#200=DIRECTION('',(0.,-4.47585975281953E-15,1.));
#201=DIRECTION('',(0.,1.,4.47585975281953E-15));
#202=DIRECTION('',(1.,0.,0.));
#203=DIRECTION('',(0.,1.,4.47585975281953E-15));
#204=DIRECTION('',(0.,1.,0.));
#205=DIRECTION('',(0.,0.,-1.));
#206=DIRECTION('',(1.,0.,0.));
#207=DIRECTION('',(0.,0.,-1.));
#208=DIRECTION('',(0.,-3.63663604916587E-15,-1.));
#209=DIRECTION('',(0.,-1.,3.63663604916587E-15));
#210=DIRECTION('',(0.,-1.,3.63663604916587E-15));
#211=DIRECTION('',(1.,0.,0.));
#212=DIRECTION('',(0.,0.,-1.58750000000001));
#213=DIRECTION('',(1.,0.,0.));
#214=DIRECTION('',(0.,0.,-1.58750000000001));
#215=DIRECTION('',(1.,0.,0.));
#216=DIRECTION('',(0.,0.,-1.58750000000001));
#217=DIRECTION('',(1.,0.,0.));
#218=DIRECTION('',(0.,0.,-1.5875));
#219=DIRECTION('',(1.,0.,0.));
#220=DIRECTION('',(0.,0.,-1.5875));
#221=DIRECTION('',(1.,0.,0.));
#222=DIRECTION('',(0.,0.,-1.5875));
#223=DIRECTION('',(1.,0.,0.));
#224=DIRECTION('',(0.,0.,-1.58749999999998));
#225=DIRECTION('',(1.,0.,0.));
#226=DIRECTION('',(0.,0.,-1.58749999999998));
#227=DIRECTION('',(1.,0.,0.));
#228=DIRECTION('',(0.,0.,-1.58749999999998));
#229=DIRECTION('',(1.,-1.1446276886877E-30,1.48434919952276E-33));
#230=DIRECTION('',(1.,-1.1446276886877E-30,1.48434919952276E-33));
#231=CARTESIAN_POINT('',(15.7988,-14.8226472854614,122.50003528595));
#232=CARTESIAN_POINT('',(18.1864,-14.8226472854614,-19.9999294281005));
#233=CARTESIAN_POINT('',(18.1864,-14.8226472854614,-19.9999294281005));
#234=CARTESIAN_POINT('',(18.1864,-14.8226472854614,265.));
#235=CARTESIAN_POINT('',(15.7988,-14.8226472854614,265.));
#236=CARTESIAN_POINT('',(15.7988,-14.8226472854614,265.));
#237=CARTESIAN_POINT('',(15.7988,-14.8226472854614,-19.9999294281005));
#238=CARTESIAN_POINT('',(15.7988,-14.8226472854614,-19.9999294281005));
#239=CARTESIAN_POINT('',(15.7988,-14.8226472854614,-19.9999294281005));
#240=CARTESIAN_POINT('',(15.7988,-8.47264728546143,265.));
#241=CARTESIAN_POINT('',(18.1864,-14.8226472854614,265.));
#242=CARTESIAN_POINT('',(18.1864,-2.12264728546143,265.));
#243=CARTESIAN_POINT('',(15.7988,-2.12264728546143,265.));
#244=CARTESIAN_POINT('',(15.7988,-2.12264728546143,265.));
#245=CARTESIAN_POINT('',(15.7988,-14.8226472854614,265.));
#246=CARTESIAN_POINT('',(15.7988,-2.12264728546143,122.50003528595));
#247=CARTESIAN_POINT('',(18.1864,-2.12264728546143,265.));
#248=CARTESIAN_POINT('',(18.1864,-2.12264728546143,-19.9999294281006));
#249=CARTESIAN_POINT('',(15.7988,-2.12264728546143,-19.9999294281006));
#250=CARTESIAN_POINT('',(15.7988,-2.12264728546143,-19.9999294281006));
#251=CARTESIAN_POINT('',(15.7988,-2.12264728546143,265.));
#252=CARTESIAN_POINT('',(15.7988,-8.47264728546143,-19.9999294281006));
#253=CARTESIAN_POINT('',(18.1864,-2.12264728546143,-19.9999294281006));
#254=CARTESIAN_POINT('',(15.7988,-2.12264728546143,-19.9999294281006));
#255=CARTESIAN_POINT('',(15.7988,-11.3124424179077,149.200790405273));
#256=CARTESIAN_POINT('',(18.1864,-11.3124424179077,149.200790405273));
#257=CARTESIAN_POINT('',(18.1864,-11.3124424179077,147.613290405273));
#258=CARTESIAN_POINT('',(15.7988,-11.3124424179077,149.200790405273));
#259=CARTESIAN_POINT('',(15.7988,-11.3124424179077,147.613290405273));
#260=CARTESIAN_POINT('',(15.7988,-8.47632312774658,-7.50338315963745));
#261=CARTESIAN_POINT('',(18.1864,-8.47632312774658,-7.50338315963745));
#262=CARTESIAN_POINT('',(18.1864,-8.47632312774658,-9.09088315963745));
#263=CARTESIAN_POINT('',(15.7988,-8.47632312774658,-7.50338315963745));
#264=CARTESIAN_POINT('',(15.7988,-8.47632312774658,-9.09088315963745));
#265=CARTESIAN_POINT('',(15.7988,-11.3124424179077,260.774993896484));
#266=CARTESIAN_POINT('',(18.1864,-11.3124424179077,260.774993896484));
#267=CARTESIAN_POINT('',(18.1864,-11.3124424179077,259.187493896484));
#268=CARTESIAN_POINT('',(15.7988,-11.3124424179077,260.774993896484));
#269=CARTESIAN_POINT('',(15.7988,-11.3124424179077,259.187493896484));
#270=CARTESIAN_POINT('',(18.1864,-8.47264728546143,122.50003528595));
#271=CARTESIAN_POINT('',(15.7988,-8.47264728546143,122.50003528595));
#272=PLANE('',#180);
#273=PLANE('',#181);
#274=PLANE('',#182);
#275=PLANE('',#183);
#276=PLANE('',#193);
#277=PLANE('',#194);
#278=CLOSED_SHELL('',(#171,#172,#173,#174,#175,#176,#177,#178,#179));
#279=MANIFOLD_SOLID_BREP('',#278);
#280=ADVANCED_BREP_SHAPE_REPRESENTATION('',(#279),#33);
ENDSEC;
END-ISO-10303-21;
