  0
SECTION
  2
HEADER
  9
$ACADVER
  1
AC1015
  9
$ACADMAINTVER
 70
     6
  9
$DWGCODEPAGE
  3
ANSI_1252
  9
$INSBASE
 10
0.0
 20
0.0
 30
0.0
  9
$EXTMIN
 10
1.000000000000000E+20
 20
1.000000000000000E+20
 30
1.000000000000000E+20
  9
$EXTMAX
 10
-1.000000000000000E+20
 20
-1.000000000000000E+20
 30
-1.000000000000000E+20
  9
$LIMMIN
 10
0.0
 20
0.0
  9
$LIMMAX
 10
12.0
 20
9.0
  9
$ORTHOMODE
 70
     0
  9
$REGENMODE
 70
     1
  9
$FILLMODE
 70
     1
  9
$QTEXTMODE
 70
     0
  9
$MIRRTEXT
 70
     1
  9
$LTSCALE
 40
1.0
  9
$ATTMODE
 70
     1
  9
$TEXTSIZE
 40
0.2
  9
$TRACEWID
 40
0.05
  9
$TEXTSTYLE
  7
Standard
  9
$CLAYER
  8
0
  9
$CELTYPE
  6
ByLayer
  9
$CECOLOR
 62
   256
  9
$CELTSCALE
 40
1.0
  9
$DISPSILH
 70
     0
  9
$DIMSCALE
 40
1.0
  9
$DIMASZ
 40
0.06
  9
$DIMEXO
 40
0.0625
  9
$DIMDLI
 40
0.38
  9
$DIMRND
 40
0.0
  9
$DIMDLE
 40
0.0
  9
$DIMEXE
 40
0.18
  9
$DIMTP
 40
0.0
  9
$DIMTM
 40
0.0
  9
$DIMTXT
 40
0.0821180555555555
  9
$DIMCEN
 40
0.09
  9
$DIMTSZ
 40
0.0
  9
$DIMTOL
 70
     0
  9
$DIMLIM
 70
     0
  9
$DIMTIH
 70
     1
  9
$DIMTOH
 70
     1
  9
$DIMSE1
 70
     0
  9
$DIMSE2
 70
     0
  9
$DIMTAD
 70
     0
  9
$DIMZIN
 70
     0
  9
$DIMBLK
  1

  9
$DIMASO
 70
     1
  9
$DIMSHO
 70
     1
  9
$DIMPOST
  1

  9
$DIMAPOST
  1

  9
$DIMALT
 70
     0
  9
$DIMALTD
 70
     2
  9
$DIMALTF
 40
25.4
  9
$DIMLFAC
 40
1.0
  9
$DIMTOFL
 70
     0
  9
$DIMTVP
 40
0.0
  9
$DIMTIX
 70
     0
  9
$DIMSOXD
 70
     0
  9
$DIMSAH
 70
     0
  9
$DIMBLK1
  1

  9
$DIMBLK2
  1

  9
$DIMSTYLE
  2
Standard
  9
$DIMCLRD
 70
     0
  9
$DIMCLRE
 70
     0
  9
$DIMCLRT
 70
     0
  9
$DIMTFAC
 40
1.0
  9
$DIMGAP
 40
0.09
  9
$DIMJUST
 70
     0
  9
$DIMSD1
 70
     0
  9
$DIMSD2
 70
     0
  9
$DIMTOLJ
 70
     1
  9
$DIMTZIN
 70
     0
  9
$DIMALTZ
 70
     0
  9
$DIMALTTZ
 70
     0
  9
$DIMUPT
 70
     0
  9
$DIMDEC
 70
     4
  9
$DIMTDEC
 70
     4
  9
$DIMALTU
 70
     2
  9
$DIMALTTD
 70
     2
  9
$DIMTXSTY
  7
Standard
  9
$DIMAUNIT
 70
     0
  9
$DIMADEC
 70
     0
  9
$DIMALTRND
 40
0.0
  9
$DIMAZIN
 70
     0
  9
$DIMDSEP
 70
    46
  9
$DIMATFIT
 70
     3
  9
$DIMFRAC
 70
     0
  9
$DIMLDRBLK
  1

  9
$DIMLUNIT
 70
     2
  9
$DIMLWD
 70
    -2
  9
$DIMLWE
 70
    -2
  9
$DIMTMOVE
 70
     0
  9
$LUNITS
 70
     2
  9
$LUPREC
 70
     4
  9
$SKETCHINC
 40
0.1
  9
$FILLETRAD
 40
0.5
  9
$AUNITS
 70
     0
  9
$AUPREC
 70
     0
  9
$MENU
  1
.
  9
$ELEVATION
 40
0.0
  9
$PELEVATION
 40
0.0
  9
$THICKNESS
 40
0.0
  9
$LIMCHECK
 70
     0
  9
$CHAMFERA
 40
0.5
  9
$CHAMFERB
 40
0.5
  9
$CHAMFERC
 40
1.0
  9
$CHAMFERD
 40
0.0
  9
$SKPOLY
 70
     0
  9
$TDCREATE
 40
2457806.4150986
  9
$TDUCREATE
 40
2457806.623431933
  9
$TDUPDATE
 40
2457806.415098611
  9
$TDUUPDATE
 40
2457806.623431944
  9
$TDINDWG
 40
0.0000000116
  9
$TDUSRTIMER
 40
0.0000000116
  9
$USRTIMER
 70
     1
  9
$ANGBASE
 50
0.0
  9
$ANGDIR
 70
     0
  9
$PDMODE
 70
     0
  9
$PDSIZE
 40
0.0
  9
$PLINEWID
 40
0.0
  9
$SPLFRAME
 70
     0
  9
$SPLINETYPE
 70
     6
  9
$SPLINESEGS
 70
     8
  9
$HANDSEED
  5
27B
  9
$SURFTAB1
 70
     6
  9
$SURFTAB2
 70
     6
  9
$SURFTYPE
 70
     6
  9
$SURFU
 70
     6
  9
$SURFV
 70
     6
  9
$UCSBASE
  2

  9
$UCSNAME
  2

  9
$UCSORG
 10
0.0
 20
0.0
 30
0.0
  9
$UCSXDIR
 10
1.0
 20
0.0
 30
0.0
  9
$UCSYDIR
 10
0.0
 20
1.0
 30
0.0
  9
$UCSORTHOREF
  2

  9
$UCSORTHOVIEW
 70
     0
  9
$UCSORGTOP
 10
0.0
 20
0.0
 30
0.0
  9
$UCSORGBOTTOM
 10
0.0
 20
0.0
 30
0.0
  9
$UCSORGLEFT
 10
0.0
 20
0.0
 30
0.0
  9
$UCSORGRIGHT
 10
0.0
 20
0.0
 30
0.0
  9
$UCSORGFRONT
 10
0.0
 20
0.0
 30
0.0
  9
$UCSORGBACK
 10
0.0
 20
0.0
 30
0.0
  9
$PUCSBASE
  2

  9
$PUCSNAME
  2

  9
$PUCSORG
 10
0.0
 20
0.0
 30
0.0
  9
$PUCSXDIR
 10
1.0
 20
0.0
 30
0.0
  9
$PUCSYDIR
 10
0.0
 20
1.0
 30
0.0
  9
$PUCSORTHOREF
  2

  9
$PUCSORTHOVIEW
 70
     0
  9
$PUCSORGTOP
 10
0.0
 20
0.0
 30
0.0
  9
$PUCSORGBOTTOM
 10
0.0
 20
0.0
 30
0.0
  9
$PUCSORGLEFT
 10
0.0
 20
0.0
 30
0.0
  9
$PUCSORGRIGHT
 10
0.0
 20
0.0
 30
0.0
  9
$PUCSORGFRONT
 10
0.0
 20
0.0
 30
0.0
  9
$PUCSORGBACK
 10
0.0
 20
0.0
 30
0.0
  9
$USERI1
 70
     0
  9
$USERI2
 70
     0
  9
$USERI3
 70
     0
  9
$USERI4
 70
     0
  9
$USERI5
 70
     0
  9
$USERR1
 40
0.0
  9
$USERR2
 40
0.0
  9
$USERR3
 40
0.0
  9
$USERR4
 40
0.0
  9
$USERR5
 40
0.0
  9
$WORLDVIEW
 70
     1
  9
$SHADEDGE
 70
     3
  9
$SHADEDIF
 70
    70
  9
$TILEMODE
 70
     1
  9
$MAXACTVP
 70
    64
  9
$PINSBASE
 10
0.0
 20
0.0
 30
0.0
  9
$PLIMCHECK
 70
     0
  9
$PEXTMIN
 10
1.000000000000000E+20
 20
1.000000000000000E+20
 30
1.000000000000000E+20
  9
$PEXTMAX
 10
-1.000000000000000E+20
 20
-1.000000000000000E+20
 30
-1.000000000000000E+20
  9
$PLIMMIN
 10
0.0
 20
0.0
  9
$PLIMMAX
 10
12.0
 20
9.0
  9
$UNITMODE
 70
     0
  9
$VISRETAIN
 70
     1
  9
$PLINEGEN
 70
     0
  9
$PSLTSCALE
 70
     1
  9
$TREEDEPTH
 70
  3020
  9
$CMLSTYLE
  2
Standard
  9
$CMLJUST
 70
     0
  9
$CMLSCALE
 40
1.0
  9
$PROXYGRAPHICS
 70
     1
  9
$MEASUREMENT
 70
     0
  9
$CELWEIGHT
370
    -1
  9
$ENDCAPS
280
     0
  9
$JOINSTYLE
280
     0
  9
$LWDISPLAY
290
     0
  9
$INSUNITS
 70
     1
  9
$HYPERLINKBASE
  1

  9
$STYLESHEET
  1

  9
$XEDIT
290
     1
  9
$CEPSNTYPE
380
     0
  9
$PSTYLEMODE
290
     1
  9
$FINGERPRINTGUID
  2
{E0142659-F72E-490F-9C15-24664D370B4E}
  9
$VERSIONGUID
  2
{FAEB1C32-E019-11D5-929B-00C0DF256EC4}
  9
$EXTNAMES
290
     1
  9
$PSVPSCALE
 40
0.0
  9
$OLESTARTUP
290
     0
  0
ENDSEC
  0
SECTION
  2
CLASSES
  0
CLASS
  1
ACDBDICTIONARYWDFLT
  2
AcDbDictionaryWithDefault
  3
ObjectDBX Classes
 90
        0
280
     0
281
     0
  0
CLASS
  1
VISUALSTYLE
  2
AcDbVisualStyle
  3
ObjectDBX Classes
 90
     4095
280
     0
281
     0
  0
CLASS
  1
SCALE
  2
AcDbScale
  3
ObjectDBX Classes
 90
     1153
280
     0
281
     0
  0
CLASS
  1
DICTIONARYVAR
  2
AcDbDictionaryVar
  3
ObjectDBX Classes
 90
        0
280
     0
281
     0
  0
CLASS
  1
ACDBPLACEHOLDER
  2
AcDbPlaceHolder
  3
ObjectDBX Classes
 90
        0
280
     0
281
     0
  0
CLASS
  1
LAYOUT
  2
AcDbLayout
  3
ObjectDBX Classes
 90
        0
280
     0
281
     0
  0
ENDSEC
  0
SECTION
  2
TABLES
  0
TABLE
  2
VPORT
  5
8
330
0
100
AcDbSymbolTable
 70
     1
  0
VPORT
  5
29
330
8
100
AcDbSymbolTableRecord
100
AcDbViewportTableRecord
  2
*Active
 70
     0
 10
0.0
 20
0.0
 11
1.0
 21
1.0
 12
10.42990654205607
 22
4.5
 13
0.0
 23
0.0
 14
0.5
 24
0.5
 15
0.5
 25
0.5
 16
0.0
 26
0.0
 36
1.0
 17
0.0
 27
0.0
 37
0.0
 40
9.0
 41
1.972972972850329
 42
50.0
 43
0.0
 44
0.0
 50
0.0
 51
0.0
 71
     0
 72
   100
 73
     1
 74
     3
 75
     0
 76
     0
 77
     0
 78
     0
281
     0
 65
     1
110
0.0
120
0.0
130
0.0
111
1.0
121
0.0
131
0.0
112
0.0
122
1.0
132
0.0
 79
     0
146
0.0
  0
ENDTAB
  0
TABLE
  2
LTYPE
  5
5
330
0
100
AcDbSymbolTable
 70
     1
  0
LTYPE
  5
14
330
5
100
AcDbSymbolTableRecord
100
AcDbLinetypeTableRecord
  2
ByBlock
 70
     0
  3

 72
    65
 73
     0
 40
0.0
  0
LTYPE
  5
15
330
5
100
AcDbSymbolTableRecord
100
AcDbLinetypeTableRecord
  2
ByLayer
 70
     0
  3

 72
    65
 73
     0
 40
0.0
  0
LTYPE
  5
16
330
5
100
AcDbSymbolTableRecord
100
AcDbLinetypeTableRecord
  2
Continuous
 70
     0
  3
Solid line
 72
    65
 73
     0
 40
0.0
  0
ENDTAB
  0
TABLE
  2
LAYER
  5
2
330
0
100
AcDbSymbolTable
 70
     3
  0
LAYER
  5
10
330
2
100
AcDbSymbolTableRecord
100
AcDbLayerTableRecord
  2
0
 70
     0
 62
     7
  6
Continuous
370
    -3
390
F
  0
LAYER
  5
5D
330
2
100
AcDbSymbolTableRecord
100
AcDbLayerTableRecord
  2
VISIBLE
 70
     0
 62
     7
  6
Continuous
370
     0
390
F
  0
LAYER
  5
136
330
2
100
AcDbSymbolTableRecord
100
AcDbLayerTableRecord
  2
CONTINUOUS
 70
     0
 62
     7
  6
Continuous
370
     0
390
F
  0
ENDTAB
  0
TABLE
  2
STYLE
  5
3
330
0
100
AcDbSymbolTable
 70
     1
  0
STYLE
  5
11
330
3
100
AcDbSymbolTableRecord
100
AcDbTextStyleTableRecord
  2
Standard
 70
     0
 40
0.125
 41
1.0
 50
0.0
 71
     0
 42
0.2
  3
txt
  4

1001
ACAD
1000
Arial
1071
        0
  0
ENDTAB
  0
TABLE
  2
VIEW
  5
6
330
0
100
AcDbSymbolTable
 70
     0
  0
ENDTAB
  0
TABLE
  2
UCS
  5
7
330
0
100
AcDbSymbolTable
 70
     0
  0
ENDTAB
  0
TABLE
  2
APPID
  5
9
330
0
100
AcDbSymbolTable
 70
     1
  0
APPID
  5
12
330
9
100
AcDbSymbolTableRecord
100
AcDbRegAppTableRecord
  2
ACAD
 70
     0
  0
ENDTAB
  0
TABLE
  2
DIMSTYLE
  5
A
330
0
100
AcDbSymbolTable
 70
     1
100
AcDbDimStyleTable
  0
DIMSTYLE
105
27
330
A
100
AcDbSymbolTableRecord
100
AcDbDimStyleTableRecord
  2
Standard
 70
     0
340
11
  0
ENDTAB
  0
TABLE
  2
BLOCK_RECORD
  5
1
330
0
100
AcDbSymbolTable
 70
     1
  0
BLOCK_RECORD
  5
1F
330
1
100
AcDbSymbolTableRecord
100
AcDbBlockTableRecord
  2
*Model_Space
340
22
  0
BLOCK_RECORD
  5
1B
330
1
100
AcDbSymbolTableRecord
100
AcDbBlockTableRecord
  2
*Paper_Space
340
1E
  0
BLOCK_RECORD
  5
23
330
1
100
AcDbSymbolTableRecord
100
AcDbBlockTableRecord
  2
*Paper_Space0
340
26
  0
ENDTAB
  0
ENDSEC
  0
SECTION
  2
BLOCKS
  0
BLOCK
  5
20
330
1F
100
AcDbEntity
  8
0
100
AcDbBlockBegin
  2
*Model_Space
 70
     0
 10
0.0
 20
0.0
 30
0.0
  3
*Model_Space
  1

  0
ENDBLK
  5
21
330
1F
100
AcDbEntity
  8
0
100
AcDbBlockEnd
  0
BLOCK
  5
1C
330
1B
100
AcDbEntity
 67
     1
  8
0
100
AcDbBlockBegin
  2
*Paper_Space
 70
     0
 10
0.0
 20
0.0
 30
0.0
  3
*Paper_Space
  1

  0
ENDBLK
  5
1D
330
1B
100
AcDbEntity
 67
     1
  8
0
100
AcDbBlockEnd
  0
BLOCK
  5
24
330
23
100
AcDbEntity
  8
0
100
AcDbBlockBegin
  2
*Paper_Space0
 70
     0
 10
0.0
 20
0.0
 30
0.0
  3
*Paper_Space0
  1

  0
ENDBLK
  5
25
330
23
100
AcDbEntity
  8
0
100
AcDbBlockEnd
  0
ENDSEC
  0
SECTION
  2
ENTITIES
  0
LINE
  5
5E
330
1F
100
AcDbEntity
  8
VISIBLE
  6
Continuous
 62
     7
100
AcDbLine
 10
9.531980525940433
 20
8.042050068772676
 30
0.0
 11
8.438230525940433
 21
8.042050068772676
 31
0.0
  0
LINE
  5
5F
330
1F
100
AcDbEntity
  8
VISIBLE
  6
Continuous
 62
     7
100
AcDbLine
 10
7.668230525940432
 20
7.479550068772676
 30
0.0
 11
7.668230525940432
 21
5.979550068772676
 31
0.0
  0
LINE
  5
60
330
1F
100
AcDbEntity
  8
VISIBLE
  6
Continuous
 62
     7
100
AcDbLine
 10
8.188230525940433
 20
7.479550068772676
 30
0.0
 11
7.668230525940432
 21
7.479550068772676
 31
0.0
  0
LINE
  5
61
330
1F
100
AcDbEntity
  8
VISIBLE
  6
Continuous
 62
     7
100
AcDbLine
 10
8.438230525940433
 20
7.729550068772677
 30
0.0
 11
8.188230525940433
 21
7.479550068772676
 31
0.0
  0
LINE
  5
62
330
1F
100
AcDbEntity
  8
VISIBLE
  6
Continuous
 62
     7
100
AcDbLine
 10
7.938230525940432
 20
5.979550068772676
 30
0.0
 11
9.531980525940432
 21
7.573300068772677
 31
0.0
  0
LINE
  5
63
330
1F
100
AcDbEntity
  8
VISIBLE
  6
Continuous
 62
     7
100
AcDbLine
 10
8.438230525940433
 20
8.042050068772676
 30
0.0
 11
8.438230525940433
 21
7.729550068772677
 31
0.0
  0
CIRCLE
  5
64
330
1F
100
AcDbEntity
  8
VISIBLE
  6
Continuous
 62
     7
100
AcDbCircle
 10
8.094480525940432
 20
6.667050068772678
 30
0.0
 40
0.1250000000000018
  0
LINE
  5
65
330
1F
100
AcDbEntity
  8
VISIBLE
  6
Continuous
 62
     7
100
AcDbLine
 10
7.668230525940432
 20
5.979550068772676
 30
0.0
 11
7.938230525940433
 21
5.979550068772676
 31
0.0
  0
LINE
  5
66
330
1F
100
AcDbEntity
  8
VISIBLE
  6
Continuous
 62
     7
100
AcDbLine
 10
9.531980525940433
 20
7.573300068772677
 30
0.0
 11
9.531980525940433
 21
8.042050068772676
 31
0.0
  0
CIRCLE
  5
67
330
1F
100
AcDbEntity
  8
VISIBLE
  6
Continuous
 62
     7
100
AcDbCircle
 10
5.342446875384447
 20
4.27751015490433
 30
0.0
 40
0.3125
  0
CIRCLE
  5
68
330
1F
100
AcDbEntity
  8
VISIBLE
  6
Continuous
 62
     7
100
AcDbCircle
 10
5.342446875384447
 20
4.27751015490433
 30
0.0
 40
0.6875000000000018
  0
CIRCLE
  5
69
330
1F
100
AcDbEntity
  8
VISIBLE
  6
Continuous
 62
     7
100
AcDbCircle
 10
5.342446875384447
 20
3.746260154904331
 30
0.0
 40
0.0800000000000018
  0
CIRCLE
  5
6A
330
1F
100
AcDbEntity
  8
VISIBLE
  6
Continuous
 62
     7
100
AcDbCircle
 10
5.342446875384447
 20
4.808760154904331
 30
0.0
 40
0.0800000000000018
  0
CIRCLE
  5
6B
330
1F
100
AcDbEntity
  8
VISIBLE
  6
Continuous
 62
     7
100
AcDbCircle
 10
4.75424548772374
 20
6.288578904519921
 30
0.0
 40
0.3124999999999991
  0
CIRCLE
  5
6C
330
1F
100
AcDbEntity
  8
VISIBLE
  6
Continuous
 62
     7
100
AcDbCircle
 10
4.75424548772374
 20
6.288578904519921
 30
0.0
 40
0.6875000000000009
  0
CIRCLE
  5
6D
330
1F
100
AcDbEntity
  8
VISIBLE
  6
Continuous
 62
     7
100
AcDbCircle
 10
4.75424548772374
 20
5.757328904519921
 30
0.0
 40
0.080000000000001
  0
CIRCLE
  5
6E
330
1F
100
AcDbEntity
  8
VISIBLE
  6
Continuous
 62
     7
100
AcDbCircle
 10
4.75424548772374
 20
6.819828904519921
 30
0.0
 40
0.080000000000001
  0
LINE
  5
6F
330
1F
100
AcDbEntity
  8
VISIBLE
  6
Continuous
 62
     7
100
AcDbLine
 10
2.494758405773624
 20
4.77168093703866
 30
0.0
 11
2.494758405773624
 21
3.240430937038662
 31
0.0
  0
CIRCLE
  5
70
330
1F
100
AcDbEntity
  8
VISIBLE
  6
Continuous
 62
     7
100
AcDbCircle
 10
6.442258405773623
 20
6.334180937038662
 30
0.0
 40
0.0749999999999975
  0
ARC
  5
71
330
1F
100
AcDbEntity
  8
VISIBLE
  6
Continuous
 62
     7
100
AcDbCircle
 10
6.057258405773624
 20
7.084180937038661
 30
0.0
 40
0.2499999999999982
100
AcDbArc
 50
0.0
 51
90.0
  0
LINE
  5
72
330
1F
100
AcDbEntity
  8
VISIBLE
  6
Continuous
 62
     7
100
AcDbLine
 10
4.088508405773622
 20
5.521680937038662
 30
0.0
 11
4.088508405773622
 21
5.146680937038662
 31
0.0
  0
LINE
  5
73
330
1F
100
AcDbEntity
  8
VISIBLE
  6
Continuous
 62
     7
100
AcDbLine
 10
2.394762124883623
 20
6.380021088740279
 30
0.0
 11
2.511469245616533
 21
6.593984143417283
 31
0.0
  0
ARC
  5
74
330
1F
100
AcDbEntity
  8
VISIBLE
  6
Continuous
 62
     7
100
AcDbCircle
 10
6.057258405773625
 20
7.000847603705326
 30
0.0
 40
0.2500000000000001
100
AcDbArc
 50
292.6198649480425
 51
0.0
  0
LINE
  5
75
330
1F
100
AcDbEntity
  8
VISIBLE
  6
Continuous
 62
     7
100
AcDbLine
 10
3.327712731700708
 20
4.888026719376811
 30
0.0
 11
2.98948031663889
 21
4.315633401579887
 31
0.0
  0
CIRCLE
  5
76
330
1F
100
AcDbEntity
  8
VISIBLE
  6
Continuous
 62
     7
100
AcDbCircle
 10
3.307258405773624
 20
7.490430937038662
 30
0.0
 40
0.1250000000000009
  0
ARC
  5
77
330
1F
100
AcDbEntity
  8
VISIBLE
  6
Continuous
 62
     7
100
AcDbCircle
 10
4.89510180711134
 20
6.959180937038546
 30
0.0
 40
0.375000000000119
100
AcDbArc
 50
90.0
 51
111.8014094863459
  0
LINE
  5
78
330
1F
100
AcDbEntity
  8
VISIBLE
  6
Continuous
 62
     7
100
AcDbLine
 10
0.8810983621121267
 20
3.874960889407952
 30
0.0
 11
0.7046243871497335
 21
3.956254789286402
 31
0.0
  0
LINE
  5
79
330
1F
100
AcDbEntity
  8
VISIBLE
  6
Continuous
 62
     7
100
AcDbLine
 10
5.619758405773623
 20
6.084180937038662
 30
0.0
 11
5.619758405773623
 21
6.381055937038661
 31
0.0
  0
LINE
  5
7A
330
1F
100
AcDbEntity
  8
VISIBLE
  6
Continuous
 62
     7
100
AcDbLine
 10
5.773604559619764
 20
6.611825167807889
 30
0.0
 11
6.153412251927458
 21
6.770078372936094
 31
0.0
  0
CIRCLE
  5
7B
330
1F
100
AcDbEntity
  8
VISIBLE
  6
Continuous
 62
     7
100
AcDbCircle
 10
2.682258405773624
 20
7.92793093703866
 30
0.0
 40
0.0750000000000011
  0
LINE
  5
7C
330
1F
100
AcDbEntity
  8
VISIBLE
  6
Continuous
 62
     7
100
AcDbLine
 10
6.869758405773623
 20
6.084180937038676
 30
0.0
 11
5.619758405773618
 21
6.084180937038676
 31
0.0
  0
ARC
  5
7D
330
1F
100
AcDbEntity
  8
VISIBLE
  6
Continuous
 62
     7
100
AcDbCircle
 10
4.182258405773622
 20
6.674043576503571
 30
0.0
 40
0.3750000000000016
100
AcDbArc
 50
111.8014094863524
 51
180.0
  0
ARC
  5
7E
330
1F
100
AcDbEntity
  8
VISIBLE
  6
Continuous
 62
     7
100
AcDbCircle
 10
0.809223825787006
 20
4.183320765242224
 30
0.0
 40
0.250000000000007
100
AcDbArc
 50
159.7751405688343
 51
245.266527704185
  0
CIRCLE
  5
7F
330
1F
100
AcDbEntity
  8
VISIBLE
  6
Continuous
 62
     7
100
AcDbCircle
 10
0.7135084057736216
 20
4.302930937038662
 30
0.0
 40
0.0749999999999995
  0
LINE
  5
80
330
1F
100
AcDbEntity
  8
VISIBLE
  6
Continuous
 62
     7
100
AcDbLine
 10
2.042233834859015
 20
5.021680937038661
 30
0.0
 11
2.244758405773608
 21
5.021680937038661
 31
0.0
  0
ARC
  5
81
330
1F
100
AcDbEntity
  8
VISIBLE
  6
Continuous
 62
     7
100
AcDbCircle
 10
3.542944363754206
 20
4.760844391345191
 30
0.0
 40
0.2499999999999087
100
AcDbArc
 50
112.8336541779038
 51
149.4207731275089
  0
LINE
  5
82
330
1F
100
AcDbEntity
  8
VISIBLE
  6
Continuous
 62
     7
100
AcDbLine
 10
0.7511136549126771
 20
4.684995719180315
 30
0.0
 11
2.333182818225024
 21
6.29691524406461
 31
0.0
  0
LINE
  5
83
330
1F
100
AcDbEntity
  8
VISIBLE
  6
Continuous
 62
     7
100
AcDbLine
 10
0.5746380465827183
 20
4.269747104949055
 30
0.0
 11
0.6949488978312583
 21
4.596305129766522
 31
0.0
  0
LINE
  5
84
330
1F
100
AcDbEntity
  8
VISIBLE
  6
Continuous
 62
     7
100
AcDbLine
 10
4.755830303478543
 20
7.307359696120638
 30
0.0
 11
4.042986902140822
 21
7.022222335585544
 31
0.0
  0
LINE
  5
85
330
1F
100
AcDbEntity
  8
VISIBLE
  6
Continuous
 62
     7
100
AcDbLine
 10
6.869758405773623
 20
6.084180937038662
 30
0.0
 11
7.21350840577362
 21
7.834180937038681
 31
0.0
  0
ARC
  5
86
330
1F
100
AcDbEntity
  8
VISIBLE
  6
Continuous
 62
     7
100
AcDbCircle
 10
2.608557512395514
 20
3.490430937038644
 30
0.0
 40
0.2499999999999822
100
AcDbArc
 50
270.0
 51
352.5041423602763
  0
ARC
  5
87
330
1F
100
AcDbEntity
  8
VISIBLE
  6
Continuous
 62
     7
100
AcDbCircle
 10
2.042233834859015
 20
4.77168093703872
 30
0.0
 40
0.2499999999999405
100
AcDbArc
 50
90.0
 51
137.4895529220057
  0
LINE
  5
88
330
1F
100
AcDbEntity
  8
VISIBLE
  6
Continuous
 62
     7
100
AcDbLine
 10
2.557258405773624
 20
8.084180937038646
 30
0.0
 11
6.963508405773624
 21
8.084180937038646
 31
0.0
  0
LINE
  5
89
330
1F
100
AcDbEntity
  8
VISIBLE
  6
Continuous
 62
     7
100
AcDbLine
 10
4.088508405773622
 20
5.146680937038662
 30
0.0
 11
3.815070905773624
 21
5.146680937038662
 31
0.0
  0
LINE
  5
8A
330
1F
100
AcDbEntity
  8
VISIBLE
  6
Continuous
 62
     7
100
AcDbLine
 10
2.956848374806851
 20
4.221064701691064
 30
0.0
 11
2.856421086281175
 21
3.457817308895818
 31
0.0
  0
LINE
  5
8B
330
1F
100
AcDbEntity
  8
VISIBLE
  6
Continuous
 62
     7
100
AcDbLine
 10
3.807258405773624
 20
6.674043576503571
 30
0.0
 11
3.807258405773624
 21
5.958261022928559
 31
0.0
  0
LINE
  5
8C
330
1F
100
AcDbEntity
  8
VISIBLE
  6
Continuous
 62
     7
100
AcDbLine
 10
2.608557512395514
 20
3.240430937038662
 30
0.0
 11
2.494758405773613
 21
3.240430937038662
 31
0.0
  0
LINE
  5
8D
330
1F
100
AcDbEntity
  8
VISIBLE
  6
Continuous
 62
     7
100
AcDbLine
 10
0.8810983621121267
 20
3.874960889407952
 30
0.0
 11
1.857945299808843
 21
4.940612094167983
 31
0.0
  0
ARC
  5
8E
330
1F
100
AcDbEntity
  8
VISIBLE
  6
Continuous
 62
     7
100
AcDbCircle
 10
2.065551285040138
 20
6.559590637745927
 30
0.0
 40
0.3750000000007272
100
AcDbArc
 50
315.5354589855802
 51
331.38954033402
  0
CIRCLE
  5
8F
330
1F
100
AcDbEntity
  8
VISIBLE
  6
Continuous
 62
     7
100
AcDbCircle
 10
2.682258405773624
 20
5.427930937038661
 30
0.0
 40
0.0750000000000011
  0
CIRCLE
  5
90
330
1F
100
AcDbEntity
  8
VISIBLE
  6
Continuous
 62
     7
100
AcDbCircle
 10
3.932258405773624
 20
5.427930937038661
 30
0.0
 40
0.0749999999999997
  0
LINE
  5
91
330
1F
100
AcDbEntity
  8
VISIBLE
  6
Continuous
 62
     7
100
AcDbLine
 10
6.057258405773624
 20
7.334180937038662
 30
0.0
 11
4.895101807111348
 21
7.334180937038662
 31
0.0
  0
CIRCLE
  5
92
330
1F
100
AcDbEntity
  8
VISIBLE
  6
Continuous
 62
     7
100
AcDbCircle
 10
3.932258405773624
 20
7.92793093703866
 30
0.0
 40
0.0749999999999997
  0
ARC
  5
93
330
1F
100
AcDbEntity
  8
VISIBLE
  6
Continuous
 62
     7
100
AcDbCircle
 10
2.244758405773622
 20
4.77168093703866
 30
0.0
 40
0.2500000000000013
100
AcDbArc
 50
0.0
 51
90.0
  0
ARC
  5
94
330
1F
100
AcDbEntity
  8
VISIBLE
  6
Continuous
 62
     7
100
AcDbCircle
 10
5.869758405773619
 20
6.381055937038662
 30
0.0
 40
0.2500000000000001
100
AcDbArc
 50
112.6198649480425
 51
180.0
  0
ARC
  5
95
330
1F
100
AcDbEntity
  8
VISIBLE
  6
Continuous
 62
     7
100
AcDbCircle
 10
3.204711948692211
 20
4.188451073548333
 30
0.0
 40
0.2499999999997128
100
AcDbArc
 50
149.4207731275022
 51
172.5041423602883
  0
LINE
  5
96
330
1F
100
AcDbEntity
  8
VISIBLE
  6
Continuous
 62
     7
100
AcDbLine
 10
2.557258405773624
 20
6.773553692422497
 30
0.0
 11
2.557258405773624
 21
8.084180937038646
 31
0.0
  0
LINE
  5
97
330
1F
100
AcDbEntity
  8
VISIBLE
  6
Continuous
 62
     7
100
AcDbLine
 10
6.963508405773624
 20
8.084180937038678
 30
0.0
 11
7.21350840577362
 21
7.834180937038681
 31
0.0
  0
CIRCLE
  5
98
330
1F
100
AcDbEntity
  8
VISIBLE
  6
Continuous
 62
     7
100
AcDbCircle
 10
3.088508405773624
 20
7.83418093703866
 30
0.0
 40
0.1250000000000018
  0
CIRCLE
  5
99
330
1F
100
AcDbEntity
  8
VISIBLE
  6
Continuous
 62
     7
100
AcDbCircle
 10
6.442258405773623
 20
7.83418093703866
 30
0.0
 40
0.0749999999999975
  0
ARC
  5
9A
330
1F
100
AcDbEntity
  8
VISIBLE
  6
Continuous
 62
     7
100
AcDbCircle
 10
2.182258405773755
 20
6.773553692422497
 30
0.0
 40
0.3749999999998672
100
AcDbArc
 50
331.3895403340236
 51
0.0
  0
CIRCLE
  5
9B
330
1F
100
AcDbEntity
  8
VISIBLE
  6
Continuous
 62
     7
100
AcDbCircle
 10
4.401008405773624
 20
7.490430937038662
 30
0.0
 40
0.0749999999999984
  0
LINE
  5
9C
330
1F
100
AcDbEntity
  8
VISIBLE
  6
Continuous
 62
     7
100
AcDbLine
 10
6.307258405773622
 20
7.000847603705326
 30
0.0
 11
6.307258405773622
 21
7.084180937038661
 31
0.0
  0
CIRCLE
  5
9D
330
1F
100
AcDbEntity
  8
VISIBLE
  6
Continuous
 62
     7
100
AcDbCircle
 10
3.526008405773624
 20
7.83418093703866
 30
0.0
 40
0.125
  0
ARC
  5
9E
330
1F
100
AcDbEntity
  8
VISIBLE
  6
Continuous
 62
     7
100
AcDbCircle
 10
4.182258405773652
 20
5.958261022928559
 30
0.0
 40
0.3750000000000284
100
AcDbArc
 50
180.0
 51
224.9999999999968
  0
ARC
  5
9F
330
1F
100
AcDbEntity
  8
VISIBLE
  6
Continuous
 62
     7
100
AcDbCircle
 10
0.9295346770357735
 20
4.509878790059552
 30
0.0
 40
0.2500000000002742
100
AcDbArc
 50
135.5354589855733
 51
159.7751405688195
  0
LINE
  5
A0
330
1F
100
AcDbEntity
  8
VISIBLE
  6
Continuous
 62
     7
100
AcDbLine
 10
3.917093362828663
 20
5.693095979983593
 30
0.0
 11
4.088508405773608
 21
5.521680937038661
 31
0.0
  0
LINE
  5
A1
330
1F
100
AcDbEntity
  8
VISIBLE
  6
Continuous
 62
     7
100
AcDbLine
 10
3.815070905773624
 20
5.146680937038662
 30
0.0
 11
3.445930113739758
 21
4.991253235129665
 31
0.0
  0
CIRCLE
  5
A2
330
1F
100
AcDbEntity
  8
VISIBLE
  6
Continuous
 62
     7
100
AcDbCircle
 10
2.690645737735434
 20
3.524115830249528
 30
0.0
 40
0.0750000000000011
  0
LINE
  5
A3
330
1F
100
AcDbEntity
  8
VISIBLE
  6
Continuous
 62
     7
100
AcDbLine
 10
7.549611629713268
 20
5.807020502766291
 30
0.0
 11
7.549611629713268
 21
7.33827050276629
 31
0.0
  0
CIRCLE
  5
A4
330
1F
100
AcDbEntity
  8
VISIBLE
  6
Continuous
 62
     7
100
AcDbCircle
 10
3.602111629713268
 20
4.24452050276629
 30
0.0
 40
0.075000000000002
  0
ARC
  5
A5
330
1F
100
AcDbEntity
  8
VISIBLE
  6
Continuous
 62
     7
100
AcDbCircle
 10
3.987111629713309
 20
3.49452050276629
 30
0.0
 40
0.2500000000000417
100
AcDbArc
 50
180.0
 51
270.0
  0
LINE
  5
A6
330
1F
100
AcDbEntity
  8
VISIBLE
  6
Continuous
 62
     7
100
AcDbLine
 10
5.955861629713268
 20
5.057020502766291
 30
0.0
 11
5.955861629713268
 21
5.432020502766291
 31
0.0
  0
LINE
  5
A7
330
1F
100
AcDbEntity
  8
VISIBLE
  6
Continuous
 62
     7
100
AcDbLine
 10
7.649607910603266
 20
4.198680351064674
 30
0.0
 11
7.532900789870358
 21
3.984717296387669
 31
0.0
  0
ARC
  5
A8
330
1F
100
AcDbEntity
  8
VISIBLE
  6
Continuous
 62
     7
100
AcDbCircle
 10
3.987111629713268
 20
3.577853836099623
 30
0.0
 40
0.2500000000000052
100
AcDbArc
 50
112.6198649480427
 51
180.0
  0
LINE
  5
A9
330
1F
100
AcDbEntity
  8
VISIBLE
  6
Continuous
 62
     7
100
AcDbLine
 10
6.716657303786183
 20
5.690674720428142
 30
0.0
 11
7.054889718848002
 21
6.263068038225066
 31
0.0
  0
CIRCLE
  5
AA
330
1F
100
AcDbEntity
  8
VISIBLE
  6
Continuous
 62
     7
100
AcDbCircle
 10
6.737111629713267
 20
3.088270502766292
 30
0.0
 40
0.1250000000000027
  0
ARC
  5
AB
330
1F
100
AcDbEntity
  8
VISIBLE
  6
Continuous
 62
     7
100
AcDbCircle
 10
5.149268228375552
 20
3.619520502766405
 30
0.0
 40
0.3750000000001177
100
AcDbArc
 50
270.0
 51
291.801409486346
  0
LINE
  5
AC
330
1F
100
AcDbEntity
  8
VISIBLE
  6
Continuous
 62
     7
100
AcDbLine
 10
9.163271673374764
 20
6.703740550396998
 30
0.0
 11
9.339745648337157
 21
6.622446650518549
 31
0.0
  0
LINE
  5
AD
330
1F
100
AcDbEntity
  8
VISIBLE
  6
Continuous
 62
     7
100
AcDbLine
 10
4.424611629713268
 20
4.494520502766291
 30
0.0
 11
4.424611629713268
 21
4.197645502766292
 31
0.0
  0
LINE
  5
AE
330
1F
100
AcDbEntity
  8
VISIBLE
  6
Continuous
 62
     7
100
AcDbLine
 10
4.270765475867127
 20
3.96687627199706
 30
0.0
 11
3.89095778355943
 21
3.808623066868853
 31
0.0
  0
CIRCLE
  5
AF
330
1F
100
AcDbEntity
  8
VISIBLE
  6
Continuous
 62
     7
100
AcDbCircle
 10
7.362111629713267
 20
2.650770502766291
 30
0.0
 40
0.0750000000000002
  0
LINE
  5
B0
330
1F
100
AcDbEntity
  8
VISIBLE
  6
Continuous
 62
     7
100
AcDbLine
 10
3.174611629713267
 20
4.494520502766272
 30
0.0
 11
4.424611629713272
 21
4.494520502766272
 31
0.0
  0
ARC
  5
B1
330
1F
100
AcDbEntity
  8
VISIBLE
  6
Continuous
 62
     7
100
AcDbCircle
 10
5.862111629713267
 20
3.904657863301378
 30
0.0
 40
0.3749999999999993
100
AcDbArc
 50
291.801409486353
 51
0.0
  0
ARC
  5
B2
330
1F
100
AcDbEntity
  8
VISIBLE
  6
Continuous
 62
     7
100
AcDbCircle
 10
9.235146209699884
 20
6.39538067456269
 30
0.0
 40
0.2500000000000068
100
AcDbArc
 50
339.7751405688345
 51
65.26652770418468
  0
CIRCLE
  5
B3
330
1F
100
AcDbEntity
  8
VISIBLE
  6
Continuous
 62
     7
100
AcDbCircle
 10
9.330861629713267
 20
6.275770502766291
 30
0.0
 40
0.0750000000000046
  0
LINE
  5
B4
330
1F
100
AcDbEntity
  8
VISIBLE
  6
Continuous
 62
     7
100
AcDbLine
 10
8.002136200627877
 20
5.55702050276629
 30
0.0
 11
7.799611629713283
 21
5.55702050276629
 31
0.0
  0
ARC
  5
B5
330
1F
100
AcDbEntity
  8
VISIBLE
  6
Continuous
 62
     7
100
AcDbCircle
 10
6.501425671732505
 20
5.817857048459869
 30
0.0
 40
0.2500000000001147
100
AcDbArc
 50
292.8336541779295
 51
329.4207731275091
  0
LINE
  5
B6
330
1F
100
AcDbEntity
  8
VISIBLE
  6
Continuous
 62
     7
100
AcDbLine
 10
9.293256380574213
 20
5.893705720624638
 30
0.0
 11
7.711187217261867
 21
4.281786195740343
 31
0.0
  0
LINE
  5
B7
330
1F
100
AcDbEntity
  8
VISIBLE
  6
Continuous
 62
     7
100
AcDbLine
 10
9.469731988904172
 20
6.308954334855859
 30
0.0
 11
9.349421137655632
 21
5.982396310038389
 31
0.0
  0
LINE
  5
B8
330
1F
100
AcDbEntity
  8
VISIBLE
  6
Continuous
 62
     7
100
AcDbLine
 10
5.288539732008348
 20
3.271341743684315
 30
0.0
 11
6.00138313334607
 21
3.556479104219409
 31
0.0
  0
LINE
  5
B9
330
1F
100
AcDbEntity
  8
VISIBLE
  6
Continuous
 62
     7
100
AcDbLine
 10
3.174611629713267
 20
4.494520502766291
 30
0.0
 11
2.83086162971327
 21
2.74452050276627
 31
0.0
  0
ARC
  5
BA
330
1F
100
AcDbEntity
  8
VISIBLE
  6
Continuous
 62
     7
100
AcDbCircle
 10
7.435812523091376
 20
7.088270502766306
 30
0.0
 40
0.2499999999999831
100
AcDbArc
 50
90.0
 51
172.504142360276
  0
ARC
  5
BB
330
1F
100
AcDbEntity
  8
VISIBLE
  6
Continuous
 62
     7
100
AcDbCircle
 10
8.002136200627877
 20
5.807020502766234
 30
0.0
 40
0.2499999999999432
100
AcDbArc
 50
270.0
 51
317.4895529220045
  0
LINE
  5
BC
330
1F
100
AcDbEntity
  8
VISIBLE
  6
Continuous
 62
     7
100
AcDbLine
 10
7.487111629713266
 20
2.494520502766307
 30
0.0
 11
3.080861629713268
 21
2.494520502766307
 31
0.0
  0
LINE
  5
BD
330
1F
100
AcDbEntity
  8
VISIBLE
  6
Continuous
 62
     7
100
AcDbLine
 10
5.955861629713268
 20
5.432020502766291
 30
0.0
 11
6.229299129713267
 21
5.432020502766291
 31
0.0
  0
LINE
  5
BE
330
1F
100
AcDbEntity
  8
VISIBLE
  6
Continuous
 62
     7
100
AcDbLine
 10
7.08752166068004
 20
6.357636738113889
 30
0.0
 11
7.187948949205715
 21
7.120884130909134
 31
0.0
  0
LINE
  5
BF
330
1F
100
AcDbEntity
  8
VISIBLE
  6
Continuous
 62
     7
100
AcDbLine
 10
6.237111629713266
 20
3.904657863301382
 30
0.0
 11
6.237111629713266
 21
4.620440416876394
 31
0.0
  0
LINE
  5
C0
330
1F
100
AcDbEntity
  8
VISIBLE
  6
Continuous
 62
     7
100
AcDbLine
 10
7.435812523091376
 20
7.33827050276629
 30
0.0
 11
7.549611629713278
 21
7.33827050276629
 31
0.0
  0
LINE
  5
C1
330
1F
100
AcDbEntity
  8
VISIBLE
  6
Continuous
 62
     7
100
AcDbLine
 10
9.163271673374764
 20
6.703740550396998
 30
0.0
 11
8.186424735678049
 21
5.63808934563697
 31
0.0
  0
ARC
  5
C2
330
1F
100
AcDbEntity
  8
VISIBLE
  6
Continuous
 62
     7
100
AcDbCircle
 10
7.978818750446771
 20
4.019110802059001
 30
0.0
 40
0.3750000000007549
100
AcDbArc
 50
135.5354589855802
 51
151.3895403340183
  0
CIRCLE
  5
C3
330
1F
100
AcDbEntity
  8
VISIBLE
  6
Continuous
 62
     7
100
AcDbCircle
 10
7.362111629713267
 20
5.15077050276629
 30
0.0
 40
0.0750000000000002
  0
CIRCLE
  5
C4
330
1F
100
AcDbEntity
  8
VISIBLE
  6
Continuous
 62
     7
100
AcDbCircle
 10
6.112111629713268
 20
5.15077050276629
 30
0.0
 40
0.0750000000000002
  0
LINE
  5
C5
330
1F
100
AcDbEntity
  8
VISIBLE
  6
Continuous
 62
     7
100
AcDbLine
 10
3.987111629713268
 20
3.244520502766288
 30
0.0
 11
5.149268228375541
 21
3.244520502766288
 31
0.0
  0
CIRCLE
  5
C6
330
1F
100
AcDbEntity
  8
VISIBLE
  6
Continuous
 62
     7
100
AcDbCircle
 10
6.112111629713268
 20
2.650770502766291
 30
0.0
 40
0.0750000000000002
  0
ARC
  5
C7
330
1F
100
AcDbEntity
  8
VISIBLE
  6
Continuous
 62
     7
100
AcDbCircle
 10
7.79961162971327
 20
5.807020502766291
 30
0.0
 40
0.2500000000000018
100
AcDbArc
 50
180.0
 51
270.0
  0
ARC
  5
C8
330
1F
100
AcDbEntity
  8
VISIBLE
  6
Continuous
 62
     7
100
AcDbCircle
 10
4.174611629713261
 20
4.197645502766291
 30
0.0
 40
0.2500000000000091
100
AcDbArc
 50
292.6198649480443
 51
0.0
  0
ARC
  5
C9
330
1F
100
AcDbEntity
  8
VISIBLE
  6
Continuous
 62
     7
100
AcDbCircle
 10
6.839658086794681
 20
6.39025036625662
 30
0.0
 40
0.2499999999997137
100
AcDbArc
 50
329.4207731275018
 51
352.5041423602876
  0
LINE
  5
CA
330
1F
100
AcDbEntity
  8
VISIBLE
  6
Continuous
 62
     7
100
AcDbLine
 10
7.487111629713266
 20
3.805147747382454
 30
0.0
 11
7.487111629713266
 21
2.494520502766307
 31
0.0
  0
LINE
  5
CB
330
1F
100
AcDbEntity
  8
VISIBLE
  6
Continuous
 62
     7
100
AcDbLine
 10
3.080861629713268
 20
2.494520502766276
 30
0.0
 11
2.83086162971327
 21
2.744520502766271
 31
0.0
  0
CIRCLE
  5
CC
330
1F
100
AcDbEntity
  8
VISIBLE
  6
Continuous
 62
     7
100
AcDbCircle
 10
6.955861629713266
 20
2.744520502766292
 30
0.0
 40
0.1250000000000018
  0
CIRCLE
  5
CD
330
1F
100
AcDbEntity
  8
VISIBLE
  6
Continuous
 62
     7
100
AcDbCircle
 10
3.602111629713268
 20
2.744520502766292
 30
0.0
 40
0.075000000000002
  0
ARC
  5
CE
330
1F
100
AcDbEntity
  8
VISIBLE
  6
Continuous
 62
     7
100
AcDbCircle
 10
7.862111629713127
 20
3.805147747382454
 30
0.0
 40
0.3749999999998585
100
AcDbArc
 50
151.3895403340235
 51
180.0
  0
CIRCLE
  5
CF
330
1F
100
AcDbEntity
  8
VISIBLE
  6
Continuous
 62
     7
100
AcDbCircle
 10
5.643361629713268
 20
3.088270502766292
 30
0.0
 40
0.0750000000000002
  0
LINE
  5
D0
330
1F
100
AcDbEntity
  8
VISIBLE
  6
Continuous
 62
     7
100
AcDbLine
 10
3.737111629713267
 20
3.577853836099623
 30
0.0
 11
3.737111629713267
 21
3.494520502766288
 31
0.0
  0
CIRCLE
  5
D1
330
1F
100
AcDbEntity
  8
VISIBLE
  6
Continuous
 62
     7
100
AcDbCircle
 10
6.518361629713268
 20
2.744520502766292
 30
0.0
 40
0.1250000000000018
  0
ARC
  5
D2
330
1F
100
AcDbEntity
  8
VISIBLE
  6
Continuous
 62
     7
100
AcDbCircle
 10
5.862111629713239
 20
4.62044041687639
 30
0.0
 40
0.3750000000000266
100
AcDbArc
 50
0.0
 51
44.99999999999683
  0
ARC
  5
D3
330
1F
100
AcDbEntity
  8
VISIBLE
  6
Continuous
 62
     7
100
AcDbCircle
 10
9.114835358451117
 20
6.068822649745401
 30
0.0
 40
0.2500000000002733
100
AcDbArc
 50
315.5354589855734
 51
339.77514056882
  0
LINE
  5
D4
330
1F
100
AcDbEntity
  8
VISIBLE
  6
Continuous
 62
     7
100
AcDbLine
 10
6.127276672658229
 20
4.885605459821354
 30
0.0
 11
5.955861629713284
 21
5.057020502766288
 31
0.0
  0
LINE
  5
D5
330
1F
100
AcDbEntity
  8
VISIBLE
  6
Continuous
 62
     7
100
AcDbLine
 10
6.229299129713267
 20
5.432020502766291
 30
0.0
 11
6.598439921747134
 21
5.587448204675288
 31
0.0
  0
CIRCLE
  5
D6
330
1F
100
AcDbEntity
  8
VISIBLE
  6
Continuous
 62
     7
100
AcDbCircle
 10
7.353724297751458
 20
7.054585609555423
 30
0.0
 40
0.0749999999999975
  0
LINE
  5
D7
330
1F
100
AcDbEntity
  8
VISIBLE
  6
Continuous
 62
     7
100
AcDbLine
 10
3.893665999864877
 20
1.176131556353269
 30
0.0
 11
1.673287719135634
 21
1.176131556353269
 31
0.0
  0
ARC
  5
D8
330
1F
100
AcDbEntity
  8
VISIBLE
  6
Continuous
 62
     7
100
AcDbCircle
 10
2.510039165818016
 20
2.894881556353265
 30
0.0
 40
0.5000000000000038
100
AcDbArc
 50
202.5000000000014
 51
270.0
  0
LINE
  5
D9
330
1F
100
AcDbEntity
  8
VISIBLE
  6
Continuous
 62
     7
100
AcDbLine
 10
4.698271275429796
 20
2.394881556353269
 30
0.0
 11
4.698271275429796
 21
2.144881556353269
 31
0.0
  0
LINE
  5
DA
330
1F
100
AcDbEntity
  8
VISIBLE
  6
Continuous
 62
     7
100
AcDbLine
 10
2.510039165818016
 20
2.394881556353269
 30
0.0
 11
4.698271275429796
 21
2.394881556353269
 31
0.0
  0
ARC
  5
DB
330
1F
100
AcDbEntity
  8
VISIBLE
  6
Continuous
 62
     7
100
AcDbCircle
 10
3.893665999864877
 20
1.676131556353273
 30
0.0
 40
0.5000000000000036
100
AcDbArc
 50
270.0
 51
332.7004277886676
  0
CIRCLE
  5
DC
330
1F
100
AcDbEntity
  8
VISIBLE
  6
Continuous
 62
     7
100
AcDbCircle
 10
4.042021275429796
 20
1.791131556353267
 30
0.0
 40
0.077
  0
LINE
  5
DD
330
1F
100
AcDbEntity
  8
VISIBLE
  6
Continuous
 62
     7
100
AcDbLine
 10
1.211347952879988
 20
1.484789840170709
 30
0.0
 11
0.6280644853200306
 21
2.892960698261977
 31
0.0
  0
CIRCLE
  5
DE
330
1F
100
AcDbEntity
  8
VISIBLE
  6
Continuous
 62
     7
100
AcDbCircle
 10
1.077138836176275
 20
2.490247942203386
 30
0.0
 40
0.0760000000000014
  0
CIRCLE
  5
DF
330
1F
100
AcDbEntity
  8
VISIBLE
  6
Continuous
 62
     7
100
AcDbCircle
 10
1.448271275429796
 20
1.426131556353269
 30
0.0
 40
0.0529999999999993
  0
ARC
  5
E0
330
1F
100
AcDbEntity
  8
VISIBLE
  6
Continuous
 62
     7
100
AcDbCircle
 10
1.673287719135634
 20
1.67613155635328
 30
0.0
 40
0.5000000000000119
100
AcDbArc
 50
202.5000000000026
 51
270.0
  0
CIRCLE
  5
E1
330
1F
100
AcDbEntity
  8
VISIBLE
  6
Continuous
 62
     7
100
AcDbCircle
 10
2.510771275429796
 20
2.271131556353268
 30
0.0
 40
0.0769999999999991
  0
CIRCLE
  5
E2
330
1F
100
AcDbEntity
  8
VISIBLE
  6
Continuous
 62
     7
100
AcDbCircle
 10
1.792021275429796
 20
2.644881556353269
 30
0.0
 40
0.0770000000000004
  0
LINE
  5
E3
330
1F
100
AcDbEntity
  8
VISIBLE
  6
Continuous
 62
     7
100
AcDbLine
 10
0.8590343684478547
 20
3.238631556353269
 30
0.0
 11
1.659412494126244
 21
3.238631556353269
 31
0.0
  0
ARC
  5
E4
330
1F
100
AcDbEntity
  8
VISIBLE
  6
Continuous
 62
     7
100
AcDbCircle
 10
0.8590343684478547
 20
2.988631556353244
 30
0.0
 40
0.2500000000000258
100
AcDbArc
 50
90.0
 51
202.499999999989
  0
CIRCLE
  5
E5
330
1F
100
AcDbEntity
  8
VISIBLE
  6
Continuous
 62
     7
100
AcDbCircle
 10
2.510771275429796
 20
1.791131556353267
 30
0.0
 40
0.0769999999999991
  0
LINE
  5
E6
330
1F
100
AcDbEntity
  8
VISIBLE
  6
Continuous
 62
     7
100
AcDbLine
 10
1.890382377254063
 20
3.084302414444529
 30
0.0
 11
2.048099399562371
 21
2.703539840170713
 31
0.0
  0
LINE
  5
E7
330
1F
100
AcDbEntity
  8
VISIBLE
  6
Continuous
 62
     7
100
AcDbLine
 10
4.698271275429796
 20
2.144881556353269
 30
0.0
 11
4.337976328392312
 21
1.446810096468141
 31
0.0
  0
CIRCLE
  5
E8
330
1F
100
AcDbEntity
  8
VISIBLE
  6
Continuous
 62
     7
100
AcDbCircle
 10
4.042021275429796
 20
2.271131556353268
 30
0.0
 40
0.077
  0
ARC
  5
E9
330
1F
100
AcDbEntity
  8
VISIBLE
  6
Continuous
 62
     7
100
AcDbCircle
 10
1.659412494126244
 20
2.988631556353273
 30
0.0
 40
0.2499999999999915
100
AcDbArc
 50
22.49999999999684
 51
90.0
  0
CIRCLE
  5
EA
330
1F
100
AcDbEntity
  8
VISIBLE
  6
Continuous
 62
     7
100
AcDbCircle
 10
0.8938882228141258
 20
2.955456726194409
 30
0.0
 40
0.076000000000001
  0
LINE
  5
EB
330
1F
100
AcDbEntity
  8
VISIBLE
  6
Continuous
 62
     7
100
AcDbLine
 10
9.497724277766652
 20
3.897483400459272
 30
0.0
 11
9.497724277766652
 21
1.677105119730027
 31
0.0
  0
ARC
  5
EC
330
1F
100
AcDbEntity
  8
VISIBLE
  6
Continuous
 62
     7
100
AcDbCircle
 10
7.778974277766647
 20
2.513856566412409
 30
0.0
 40
0.5000000000000043
100
AcDbArc
 50
292.5000000000021
 51
0.0
  0
LINE
  5
ED
330
1F
100
AcDbEntity
  8
VISIBLE
  6
Continuous
 62
     7
100
AcDbLine
 10
8.278974277766652
 20
4.702088676024188
 30
0.0
 11
8.528974277766652
 21
4.702088676024188
 31
0.0
  0
LINE
  5
EE
330
1F
100
AcDbEntity
  8
VISIBLE
  6
Continuous
 62
     7
100
AcDbLine
 10
8.278974277766652
 20
2.513856566412409
 30
0.0
 11
8.278974277766652
 21
4.702088676024188
 31
0.0
  0
ARC
  5
EF
330
1F
100
AcDbEntity
  8
VISIBLE
  6
Continuous
 62
     7
100
AcDbCircle
 10
8.997724277766642
 20
3.897483400459272
 30
0.0
 40
0.5000000000000107
100
AcDbArc
 50
0.0
 51
62.70042778866719
  0
CIRCLE
  5
F0
330
1F
100
AcDbEntity
  8
VISIBLE
  6
Continuous
 62
     7
100
AcDbCircle
 10
8.882724277766654
 20
4.045838676024189
 30
0.0
 40
0.0770000000000017
  0
LINE
  5
F1
330
1F
100
AcDbEntity
  8
VISIBLE
  6
Continuous
 62
     7
100
AcDbLine
 10
9.189065993949212
 20
1.215165353474386
 30
0.0
 11
7.780895135857945
 21
0.6318818859144278
 31
0.0
  0
CIRCLE
  5
F2
330
1F
100
AcDbEntity
  8
VISIBLE
  6
Continuous
 62
     7
100
AcDbCircle
 10
8.183607891916536
 20
1.080956236770669
 30
0.0
 40
0.0760000000000005
  0
CIRCLE
  5
F3
330
1F
100
AcDbEntity
  8
VISIBLE
  6
Continuous
 62
     7
100
AcDbCircle
 10
9.247724277766652
 20
1.452088676024189
 30
0.0
 40
0.052999999999999
  0
ARC
  5
F4
330
1F
100
AcDbEntity
  8
VISIBLE
  6
Continuous
 62
     7
100
AcDbCircle
 10
8.99772427776666
 20
1.677105119730027
 30
0.0
 40
0.500000000000001
100
AcDbArc
 50
292.500000000001
 51
0.0
  0
CIRCLE
  5
F5
330
1F
100
AcDbEntity
  8
VISIBLE
  6
Continuous
 62
     7
100
AcDbCircle
 10
8.402724277766653
 20
2.514588676024189
 30
0.0
 40
0.0770000000000017
  0
LINE
  5
F6
330
1F
100
AcDbEntity
  8
VISIBLE
  6
Continuous
 62
     7
100
AcDbLine
 10
7.435224277766652
 20
0.8628517690422477
 30
0.0
 11
7.435224277766652
 21
1.663229894720638
 31
0.0
  0
ARC
  5
F7
330
1F
100
AcDbEntity
  8
VISIBLE
  6
Continuous
 62
     7
100
AcDbCircle
 10
7.685224277766649
 20
0.8628517690422477
 30
0.0
 40
0.2499999999999964
100
AcDbArc
 50
180.0
 51
292.4999999999981
  0
CIRCLE
  5
F8
330
1F
100
AcDbEntity
  8
VISIBLE
  6
Continuous
 62
     7
100
AcDbCircle
 10
8.882724277766654
 20
2.514588676024189
 30
0.0
 40
0.0770000000000017
  0
LINE
  5
F9
330
1F
100
AcDbEntity
  8
VISIBLE
  6
Continuous
 62
     7
100
AcDbLine
 10
7.58955341967539
 20
1.894199777848457
 30
0.0
 11
7.970315993949209
 21
2.051916800156763
 31
0.0
  0
LINE
  5
FA
330
1F
100
AcDbEntity
  8
VISIBLE
  6
Continuous
 62
     7
100
AcDbLine
 10
8.528974277766652
 20
4.702088676024188
 30
0.0
 11
9.227045737651778
 21
4.341793728986704
 31
0.0
  0
CIRCLE
  5
FB
330
1F
100
AcDbEntity
  8
VISIBLE
  6
Continuous
 62
     7
100
AcDbCircle
 10
8.402724277766653
 20
4.045838676024189
 30
0.0
 40
0.0770000000000017
  0
ARC
  5
FC
330
1F
100
AcDbEntity
  8
VISIBLE
  6
Continuous
 62
     7
100
AcDbCircle
 10
7.685224277766658
 20
1.663229894720637
 30
0.0
 40
0.249999999999996
100
AcDbArc
 50
112.4999999999994
 51
180.0
  0
CIRCLE
  5
FD
330
1F
100
AcDbEntity
  8
VISIBLE
  6
Continuous
 62
     7
100
AcDbCircle
 10
7.718399107925511
 20
0.8977056234085197
 30
0.0
 40
0.0759999999999996
  0
CIRCLE
  5
FE
330
1F
100
AcDbEntity
  8
VISIBLE
  6
Continuous
 62
     7
100
AcDbCircle
 10
4.785449408246598
 20
0.896643231224579
 30
0.0
 40
0.0499999999999998
  0
ARC
  5
FF
330
1F
100
AcDbEntity
  8
VISIBLE
  6
Continuous
 62
     7
100
AcDbCircle
 10
5.591853165888852
 20
1.248294041205913
 30
0.0
 40
0.0499999999999517
100
AcDbArc
 50
339.9999999999891
 51
70.00000000004435
  0
LINE
  5
100
330
1F
100
AcDbEntity
  8
VISIBLE
  6
Continuous
 62
     7
100
AcDbLine
 10
5.585461857535437
 20
1.303829175828358
 30
0.0
 11
5.608954173055086
 21
1.295278672245217
 31
0.0
  0
LINE
  5
101
330
1F
100
AcDbEntity
  8
VISIBLE
  6
Continuous
 62
     7
100
AcDbLine
 10
5.524982256310035
 20
0.8270086196066104
 30
0.0
 11
5.272024934953336
 21
0.9190775551201593
 31
0.0
  0
LINE
  5
102
330
1F
100
AcDbEntity
  8
VISIBLE
  6
Continuous
 62
     7
100
AcDbLine
 10
5.538369379826184
 20
0.9551583266837772
 30
0.0
 11
5.68519635182398
 21
0.901717679289142
 31
0.0
  0
ARC
  5
103
330
1F
100
AcDbEntity
  8
VISIBLE
  6
Continuous
 62
     7
100
AcDbCircle
 10
5.180112054307749
 20
1.20255592543087
 30
0.0
 40
0.1000000000000042
100
AcDbArc
 50
70.00000000000419
 51
115.0000000000019
  0
LINE
  5
104
330
1F
100
AcDbEntity
  8
VISIBLE
  6
Continuous
 62
     7
100
AcDbLine
 10
5.398413088063922
 20
1.229518624281677
 30
0.0
 11
5.496605642139539
 21
1.293603082462976
 31
0.0
  0
LINE
  5
105
330
1F
100
AcDbEntity
  8
VISIBLE
  6
Continuous
 62
     7
100
AcDbLine
 10
4.644444676971445
 20
0.7032357998777954
 30
0.0
 11
3.13119334591951
 21
0.7036819772259202
 31
0.0
  0
ARC
  5
106
330
1F
100
AcDbEntity
  8
VISIBLE
  6
Continuous
 62
     7
100
AcDbCircle
 10
5.210461309154714
 20
0.7499328833787012
 30
0.0
 40
0.1799999999999949
100
AcDbArc
 50
69.99999999999787
 51
115.0000000000002
  0
CIRCLE
  5
107
330
1F
100
AcDbEntity
  8
VISIBLE
  6
Continuous
 62
     7
100
AcDbCircle
 10
5.232157366380433
 20
1.210274384237001
 30
0.0
 40
0.032499999999998
  0
LINE
  5
108
330
1F
100
AcDbEntity
  8
VISIBLE
  6
Continuous
 62
     7
100
AcDbLine
 10
3.131303913473504
 20
1.078681960925676
 30
0.0
 11
4.676866061265825
 21
1.078226256835868
 31
0.0
  0
LINE
  5
109
330
1F
100
AcDbEntity
  8
VISIBLE
  6
Continuous
 62
     7
100
AcDbLine
 10
5.638837796928098
 20
1.231193034039638
 30
0.0
 11
5.538369379826184
 21
0.9551583266837771
 31
0.0
  0
ARC
  5
10A
330
1F
100
AcDbEntity
  8
VISIBLE
  6
Continuous
 62
     7
100
AcDbCircle
 10
4.644497749397374
 20
0.8832357920536652
 30
0.0
 40
0.1799999999999878
100
AcDbArc
 50
269.9831065218984
 51
294.9999999999995
  0
ARC
  5
10B
330
1F
100
AcDbEntity
  8
VISIBLE
  6
Continuous
 62
     7
100
AcDbCircle
 10
3.131246418345167
 20
0.8836819694017642
 30
0.0
 40
0.1799999999997183
100
AcDbArc
 50
179.983106521887
 51
269.9831065219775
  0
ARC
  5
10C
330
1F
100
AcDbEntity
  8
VISIBLE
  6
Continuous
 62
     7
100
AcDbCircle
 10
5.551259843202874
 20
1.209859913749771
 30
0.0
 40
0.0999999999999956
100
AcDbArc
 50
70.00000000000132
 51
123.1301023541588
  0
LINE
  5
10D
330
1F
100
AcDbEntity
  8
VISIBLE
  6
Continuous
 62
     7
100
AcDbLine
 10
5.68519635182398
 20
0.9017176792891419
 30
0.0
 11
5.524982256310035
 21
0.8270086196066104
 31
0.0
  0
LINE
  5
10E
330
1F
100
AcDbEntity
  8
VISIBLE
  6
Continuous
 62
     7
100
AcDbLine
 10
5.21431406864031
 20
1.296525187509467
 30
0.0
 11
5.398413088063923
 21
1.229518624281676
 31
0.0
  0
LINE
  5
10F
330
1F
100
AcDbEntity
  8
VISIBLE
  6
Continuous
 62
     7
100
AcDbLine
 10
5.13439002204139
 20
0.9130682850452914
 30
0.0
 11
4.720569036510691
 21
0.7201003903870777
 31
0.0
  0
LINE
  5
110
330
1F
100
AcDbEntity
  8
VISIBLE
  6
Continuous
 62
     7
100
AcDbLine
 10
2.951246426169567
 20
0.8837350418277284
 30
0.0
 11
2.951250848871728
 21
0.8987350411757205
 31
0.0
  0
ARC
  5
111
330
1F
100
AcDbEntity
  8
VISIBLE
  6
Continuous
 62
     7
100
AcDbCircle
 10
3.131250841047581
 20
0.8986819687497761
 30
0.0
 40
0.1800000000000177
100
AcDbArc
 50
89.98310652189993
 51
179.9831065218934
  0
LINE
  5
112
330
1F
100
AcDbEntity
  8
VISIBLE
  6
Continuous
 62
     7
100
AcDbLine
 10
4.676866061265838
 20
1.078226256835868
 30
0.0
 11
5.137850228133671
 21
1.29318670413454
 31
0.0
  0
CIRCLE
  5
113
330
1F
100
AcDbEntity
  8
VISIBLE
  6
Continuous
 62
     7
100
AcDbCircle
 10
7.892560583399961
 20
2.662363427830492
 30
0.0
 40
0.0759999999999996
  0
LINE
  5
114
330
1F
100
AcDbEntity
  8
VISIBLE
  6
Continuous
 62
     7
100
AcDbLine
 10
7.767560583399962
 20
2.506113427830492
 30
0.0
 11
7.580060583399961
 21
2.693613427830492
 31
0.0
  0
LINE
  5
115
330
1F
100
AcDbEntity
  8
VISIBLE
  6
Continuous
 62
     7
100
AcDbLine
 10
7.580060583399961
 20
2.693613427830492
 30
0.0
 11
7.580060583399961
 21
3.568613427830493
 31
0.0
  0
CIRCLE
  5
116
330
1F
100
AcDbEntity
  8
VISIBLE
  6
Continuous
 62
     7
100
AcDbCircle
 10
7.892560583399961
 20
3.599863427830492
 30
0.0
 40
0.0759999999999996
  0
LINE
  5
117
330
1F
100
AcDbEntity
  8
VISIBLE
  6
Continuous
 62
     7
100
AcDbLine
 10
8.205060583399963
 20
2.693613427830492
 30
0.0
 11
8.01756058339996
 21
2.506113427830492
 31
0.0
  0
CIRCLE
  5
118
330
1F
100
AcDbEntity
  8
VISIBLE
  6
Continuous
 62
     7
100
AcDbCircle
 10
7.892560583399961
 20
3.131113427830492
 30
0.0
 40
0.1025000000000009
  0
LINE
  5
119
330
1F
100
AcDbEntity
  8
VISIBLE
  6
Continuous
 62
     7
100
AcDbLine
 10
8.017560583399963
 20
2.506113427830492
 30
0.0
 11
7.767560583399962
 21
2.506113427830492
 31
0.0
  0
LINE
  5
11A
330
1F
100
AcDbEntity
  8
VISIBLE
  6
Continuous
 62
     7
100
AcDbLine
 10
7.580060583399961
 20
3.568613427830493
 30
0.0
 11
7.767560583399962
 21
3.756113427830492
 31
0.0
  0
LINE
  5
11B
330
1F
100
AcDbEntity
  8
VISIBLE
  6
Continuous
 62
     7
100
AcDbLine
 10
7.767560583399962
 20
3.756113427830492
 30
0.0
 11
8.017560583399963
 21
3.756113427830492
 31
0.0
  0
LINE
  5
11C
330
1F
100
AcDbEntity
  8
VISIBLE
  6
Continuous
 62
     7
100
AcDbLine
 10
8.017560583399963
 20
3.756113427830492
 30
0.0
 11
8.20506058339996
 21
3.568613427830493
 31
0.0
  0
LINE
  5
11D
330
1F
100
AcDbEntity
  8
VISIBLE
  6
Continuous
 62
     7
100
AcDbLine
 10
8.20506058339996
 20
3.568613427830493
 30
0.0
 11
8.20506058339996
 21
2.693613427830492
 31
0.0
  0
LINE
  5
11E
330
1F
100
AcDbEntity
  8
VISIBLE
  6
Continuous
 62
     7
100
AcDbLine
 10
1.752967053511012
 20
6.050751693605434
 30
0.0
 11
1.752967053511012
 21
6.550751693605434
 31
0.0
  0
LINE
  5
11F
330
1F
100
AcDbEntity
  8
VISIBLE
  6
Continuous
 62
     7
100
AcDbLine
 10
0.7529670535110119
 20
6.550751693605434
 30
0.0
 11
0.7529670535110119
 21
6.050751693605434
 31
0.0
  0
ARC
  5
120
330
1F
100
AcDbEntity
  8
VISIBLE
  6
Continuous
 62
     7
100
AcDbCircle
 10
1.252967053511014
 20
6.300751693605433
 30
0.0
 40
0.675
100
AcDbArc
 50
21.73846079152057
 51
158.2615392084794
  0
CIRCLE
  5
121
330
1F
100
AcDbEntity
  8
VISIBLE
  6
Continuous
 62
     7
100
AcDbCircle
 10
1.252967053511012
 20
6.300751693605434
 30
0.0
 40
0.2500000000000004
  0
LINE
  5
122
330
1F
100
AcDbEntity
  8
VISIBLE
  6
Continuous
 62
     7
100
AcDbLine
 10
1.879963863710236
 20
6.050751693605434
 30
0.0
 11
1.752967053511014
 21
6.050751693605434
 31
0.0
  0
LINE
  5
123
330
1F
100
AcDbEntity
  8
VISIBLE
  6
Continuous
 62
     7
100
AcDbLine
 10
0.6259702433117875
 20
6.550751693605434
 30
0.0
 11
0.7529670535110098
 21
6.550751693605434
 31
0.0
  0
LINE
  5
124
330
1F
100
AcDbEntity
  8
VISIBLE
  6
Continuous
 62
     7
100
AcDbLine
 10
0.7529670535110119
 20
6.050751693605434
 30
0.0
 11
0.6259702433117894
 21
6.050751693605434
 31
0.0
  0
LINE
  5
125
330
1F
100
AcDbEntity
  8
VISIBLE
  6
Continuous
 62
     7
100
AcDbLine
 10
1.752967053511012
 20
6.550751693605434
 30
0.0
 11
1.879963863710234
 21
6.550751693605434
 31
0.0
  0
ARC
  5
126
330
1F
100
AcDbEntity
  8
VISIBLE
  6
Continuous
 62
     7
100
AcDbCircle
 10
1.252967053511011
 20
6.300751693605425
 30
0.0
 40
0.6749999999999932
100
AcDbArc
 50
201.7384607915199
 51
338.26153920848
  0
LINE
  5
127
330
1F
100
AcDbEntity
  8
VISIBLE
  6
Continuous
 62
     7
100
AcDbLine
 10
0.8479508539635354
 20
7.747705534687205
 30
0.0
 11
0.8479508539635354
 21
7.257999089759178
 31
0.0
  0
LINE
  5
128
330
1F
100
AcDbEntity
  8
VISIBLE
  6
Continuous
 62
     7
100
AcDbLine
 10
1.924200853963536
 20
8.060205534687205
 30
0.0
 11
1.486700853963536
 21
8.060205534687205
 31
0.0
  0
CIRCLE
  5
129
330
1F
100
AcDbEntity
  8
VISIBLE
  6
Continuous
 62
     7
100
AcDbCircle
 10
1.705450853963536
 20
7.903955534687205
 30
0.0
 40
0.0760000000000003
  0
LINE
  5
12A
330
1F
100
AcDbEntity
  8
VISIBLE
  6
Continuous
 62
     7
100
AcDbLine
 10
1.330450853963536
 20
8.060205534687205
 30
0.0
 11
0.6117008539635359
 21
8.060205534687205
 31
0.0
  0
LINE
  5
12B
330
1F
100
AcDbEntity
  8
VISIBLE
  6
Continuous
 62
     7
100
AcDbLine
 10
1.687950853963536
 20
7.257999089759178
 30
0.0
 11
1.687950853963536
 21
7.747705534687205
 31
0.0
  0
CIRCLE
  5
12C
330
1F
100
AcDbEntity
  8
VISIBLE
  6
Continuous
 62
     7
100
AcDbCircle
 10
0.8304508539635356
 20
7.903955534687205
 30
0.0
 40
0.0759999999999997
  0
LINE
  5
12D
330
1F
100
AcDbEntity
  8
VISIBLE
  6
Continuous
 62
     7
100
AcDbLine
 10
0.6117008539635355
 20
8.060205534687205
 30
0.0
 11
0.6117008539635355
 21
7.747705534687205
 31
0.0
  0
LINE
  5
12E
330
1F
100
AcDbEntity
  8
VISIBLE
  6
Continuous
 62
     7
100
AcDbLine
 10
1.924200853963536
 20
7.747705534687205
 30
0.0
 11
1.924200853963536
 21
8.060205534687205
 31
0.0
  0
LINE
  5
12F
330
1F
100
AcDbEntity
  8
VISIBLE
  6
Continuous
 62
     7
100
AcDbLine
 10
0.8479508539635354
 20
7.257999089759178
 30
0.0
 11
1.687950853963536
 21
7.257999089759178
 31
0.0
  0
CIRCLE
  5
130
330
1F
100
AcDbEntity
  8
VISIBLE
  6
Continuous
 62
     7
100
AcDbCircle
 10
1.017950853963536
 20
7.403955534687204
 30
0.0
 40
0.0760000000000001
  0
LINE
  5
131
330
1F
100
AcDbEntity
  8
VISIBLE
  6
Continuous
 62
     7
100
AcDbLine
 10
1.486700853963536
 20
8.060205534687205
 30
0.0
 11
1.486700853963536
 21
7.560205534687204
 31
0.0
  0
LINE
  5
132
330
1F
100
AcDbEntity
  8
VISIBLE
  6
Continuous
 62
     7
100
AcDbLine
 10
0.6117008539635355
 20
7.747705534687205
 30
0.0
 11
0.8479508539635353
 21
7.747705534687205
 31
0.0
  0
LINE
  5
133
330
1F
100
AcDbEntity
  8
VISIBLE
  6
Continuous
 62
     7
100
AcDbLine
 10
1.486700853963536
 20
7.560205534687204
 30
0.0
 11
1.330450853963536
 21
7.560205534687204
 31
0.0
  0
LINE
  5
134
330
1F
100
AcDbEntity
  8
VISIBLE
  6
Continuous
 62
     7
100
AcDbLine
 10
1.330450853963536
 20
7.560205534687204
 30
0.0
 11
1.330450853963536
 21
8.060205534687205
 31
0.0
  0
LINE
  5
135
330
1F
100
AcDbEntity
  8
VISIBLE
  6
Continuous
 62
     7
100
AcDbLine
 10
1.687950853963536
 20
7.747705534687205
 30
0.0
 11
1.924200853963536
 21
7.747705534687205
 31
0.0
  0
CIRCLE
  5
137
330
1F
100
AcDbEntity
  8
CONTINUOUS
  6
Continuous
 62
     7
100
AcDbCircle
 10
8.02897427776665
 20
1.795838676024189
 30
0.0
 40
0.0530000000000008
  0
CIRCLE
  5
138
330
1F
100
AcDbEntity
  8
VISIBLE
  6
Continuous
 62
     7
100
AcDbCircle
 10
8.395914993886873
 20
-1.620359007767805
 30
0.0
 40
0.0500000000000025
  0
LINE
  5
139
330
1F
100
AcDbEntity
  8
VISIBLE
  6
Continuous
 62
     7
100
AcDbLine
 10
8.989664993886874
 20
-1.776609007737171
 30
0.0
 11
8.989664993886874
 21
-1.932859007737171
 31
0.0
  0
LINE
  5
13A
330
1F
100
AcDbEntity
  8
VISIBLE
  6
Continuous
 62
     7
100
AcDbLine
 10
8.489664993886874
 20
-0.7766090077727584
 30
0.0
 11
8.489664993886874
 21
-0.620359007767807
 31
0.0
  0
LINE
  5
13B
330
1F
100
AcDbEntity
  8
VISIBLE
  6
Continuous
 62
     7
100
AcDbLine
 10
8.489664993886874
 20
-1.776609007737171
 30
0.0
 11
8.989664993886874
 21
-1.776609007737171
 31
0.0
  0
LINE
  5
13C
330
1F
100
AcDbEntity
  8
VISIBLE
  6
Continuous
 62
     7
100
AcDbLine
 10
5.677164993886874
 20
-0.8566090077322187
 30
0.0
 11
5.677164993886874
 21
-1.696609007732218
 31
0.0
  0
LINE
  5
13D
330
1F
100
AcDbEntity
  8
VISIBLE
  6
Continuous
 62
     7
100
AcDbLine
 10
9.239664993886873
 20
-1.151609007767806
 30
0.0
 11
9.479174966774307
 21
-1.151609007767806
 31
0.0
  0
LINE
  5
13E
330
1F
100
AcDbEntity
  8
VISIBLE
  6
Continuous
 62
     7
100
AcDbLine
 10
9.102757182593818
 20
-0.620359007767807
 30
0.0
 11
8.989664993886874
 21
-0.620359007767807
 31
0.0
  0
ARC
  5
13F
330
1F
100
AcDbEntity
  8
VISIBLE
  6
Continuous
 62
     7
100
AcDbCircle
 10
8.739664993886866
 20
-1.2766090077678
 30
0.0
 40
0.7499999999999926
100
AcDbArc
 50
298.9550243766942
 51
350.4059317731388
  0
LINE
  5
140
330
1F
100
AcDbEntity
  8
VISIBLE
  6
Continuous
 62
     7
100
AcDbLine
 10
8.989664993886874
 20
-0.620359007767807
 30
0.0
 11
8.989664993886874
 21
-0.7766090077727584
 31
0.0
  0
LINE
  5
141
330
1F
100
AcDbEntity
  8
VISIBLE
  6
Continuous
 62
     7
100
AcDbLine
 10
7.677164993886874
 20
-0.8566090077322187
 30
0.0
 11
5.677164993886874
 21
-0.8566090077322187
 31
0.0
  0
LINE
  5
142
330
1F
100
AcDbEntity
  8
VISIBLE
  6
Continuous
 62
     7
100
AcDbLine
 10
8.489664993886874
 20
-0.620359007767807
 30
0.0
 11
7.677164993886874
 21
-0.620359007767807
 31
0.0
  0
LINE
  5
143
330
1F
100
AcDbEntity
  8
VISIBLE
  6
Continuous
 62
     7
100
AcDbLine
 10
5.677164993886874
 20
-1.696609007732218
 30
0.0
 11
7.677164993886874
 21
-1.696609007732218
 31
0.0
  0
CIRCLE
  5
144
330
1F
100
AcDbEntity
  8
VISIBLE
  6
Continuous
 62
     7
100
AcDbCircle
 10
9.083414993886873
 20
-0.932859007767807
 30
0.0
 40
0.0500000000000025
  0
CIRCLE
  5
145
330
1F
100
AcDbEntity
  8
VISIBLE
  6
Continuous
 62
     7
100
AcDbCircle
 10
9.083414993886873
 20
-1.620359007767805
 30
0.0
 40
0.0500000000000025
  0
LINE
  5
146
330
1F
100
AcDbEntity
  8
VISIBLE
  6
Continuous
 62
     7
100
AcDbLine
 10
7.677164993886874
 20
-1.932859007737171
 30
0.0
 11
8.489664993886874
 21
-1.932859007737171
 31
0.0
  0
LINE
  5
147
330
1F
100
AcDbEntity
  8
VISIBLE
  6
Continuous
 62
     7
100
AcDbLine
 10
7.677164993886874
 20
-0.620359007767807
 30
0.0
 11
7.677164993886874
 21
-0.8566090077322187
 31
0.0
  0
CIRCLE
  5
148
330
1F
100
AcDbEntity
  8
VISIBLE
  6
Continuous
 62
     7
100
AcDbCircle
 10
8.739664993886874
 20
-1.276609007767805
 30
0.0
 40
0.3125
  0
CIRCLE
  5
149
330
1F
100
AcDbEntity
  8
VISIBLE
  6
Continuous
 62
     7
100
AcDbCircle
 10
7.177164993886872
 20
-1.276609007767805
 30
0.0
 40
0.0770000000000026
  0
ARC
  5
14A
330
1F
100
AcDbEntity
  8
VISIBLE
  6
Continuous
 62
     7
100
AcDbCircle
 10
8.739664993886882
 20
-1.276609007767804
 30
0.0
 40
0.7499999999999937
100
AcDbArc
 50
9.594068226860665
 51
61.04497562814067
  0
LINE
  5
14B
330
1F
100
AcDbEntity
  8
VISIBLE
  6
Continuous
 62
     7
100
AcDbLine
 10
7.677164993886874
 20
-1.696609007732218
 30
0.0
 11
7.677164993886874
 21
-1.932859007737171
 31
0.0
  0
LINE
  5
14C
330
1F
100
AcDbEntity
  8
VISIBLE
  6
Continuous
 62
     7
100
AcDbLine
 10
9.239664993886873
 20
-1.401609007767807
 30
0.0
 11
9.239664993886873
 21
-1.151609007767806
 31
0.0
  0
LINE
  5
14D
330
1F
100
AcDbEntity
  8
VISIBLE
  6
Continuous
 62
     7
100
AcDbLine
 10
9.479174966774307
 20
-1.401609007767807
 30
0.0
 11
9.239664993886873
 21
-1.401609007767807
 31
0.0
  0
LINE
  5
14E
330
1F
100
AcDbEntity
  8
VISIBLE
  6
Continuous
 62
     7
100
AcDbLine
 10
8.989664993886874
 20
-1.932859007737171
 30
0.0
 11
9.102757182649185
 21
-1.932859007737171
 31
0.0
  0
CIRCLE
  5
14F
330
1F
100
AcDbEntity
  8
VISIBLE
  6
Continuous
 62
     7
100
AcDbCircle
 10
6.177164993886873
 20
-1.276609007767805
 30
0.0
 40
0.0770000000000017
  0
LINE
  5
150
330
1F
100
AcDbEntity
  8
VISIBLE
  6
Continuous
 62
     7
100
AcDbLine
 10
8.489664993886874
 20
-1.932859007737171
 30
0.0
 11
8.489664993886874
 21
-1.776609007737171
 31
0.0
  0
CIRCLE
  5
151
330
1F
100
AcDbEntity
  8
VISIBLE
  6
Continuous
 62
     7
100
AcDbCircle
 10
8.395914993886873
 20
-0.932859007767807
 30
0.0
 40
0.0500000000000025
  0
LINE
  5
152
330
1F
100
AcDbEntity
  8
VISIBLE
  6
Continuous
 62
     7
100
AcDbLine
 10
8.989664993886874
 20
-0.7766090077727584
 30
0.0
 11
8.489664993886874
 21
-0.7766090077727584
 31
0.0
  0
LINE
  5
153
330
1F
100
AcDbEntity
  8
VISIBLE
  6
Continuous
 62
     7
100
AcDbLine
 10
8.436609448353959
 20
-0.1368025756993813
 30
0.0
 11
8.436609448353959
 21
0.1131974243006185
 31
0.0
  0
LINE
  5
154
330
1F
100
AcDbEntity
  8
VISIBLE
  6
Continuous
 62
     7
100
AcDbLine
 10
6.155359448353959
 20
0.6444474242956628
 30
0.0
 11
6.155359448353959
 21
0.4881974242956628
 31
0.0
  0
LINE
  5
155
330
1F
100
AcDbEntity
  8
VISIBLE
  6
Continuous
 62
     7
100
AcDbLine
 10
5.561609448349004
 20
0.6444474242956628
 30
0.0
 11
6.155359448353959
 21
0.6444474242956628
 31
0.0
  0
LINE
  5
156
330
1F
100
AcDbEntity
  8
VISIBLE
  6
Continuous
 62
     7
100
AcDbLine
 10
6.655359448353961
 20
0.6444474242956628
 30
0.0
 11
7.467859448353958
 21
0.6444474242956628
 31
0.0
  0
LINE
  5
157
330
1F
100
AcDbEntity
  8
VISIBLE
  6
Continuous
 62
     7
100
AcDbLine
 10
9.467859448353959
 20
0.408197424295659
 30
0.0
 11
9.467859448353959
 21
0.1131974243006185
 31
0.0
  0
LINE
  5
158
330
1F
100
AcDbEntity
  8
VISIBLE
  6
Continuous
 62
     7
100
AcDbLine
 10
9.467859448353959
 20
-0.1368025756993813
 30
0.0
 11
8.436609448353959
 21
-0.1368025756993813
 31
0.0
  0
LINE
  5
159
330
1F
100
AcDbEntity
  8
VISIBLE
  6
Continuous
 62
     7
100
AcDbLine
 10
4.978582753057323
 20
0.164974119597257
 30
0.0
 11
5.384832753052368
 21
0.5712241195922998
 31
0.0
  0
ARC
  5
15A
330
1F
100
AcDbEntity
  8
VISIBLE
  6
Continuous
 62
     7
100
AcDbCircle
 10
5.561609448349004
 20
0.3944474242956653
 30
0.0
 40
0.2499999999999976
100
AcDbArc
 50
90.0
 51
135.0000000000003
  0
CIRCLE
  5
15B
330
1F
100
AcDbEntity
  8
VISIBLE
  6
Continuous
 62
     7
100
AcDbCircle
 10
5.15535944835396
 20
-0.0118025756993831
 30
0.0
 40
0.0770000000000008
  0
LINE
  5
15C
330
1F
100
AcDbEntity
  8
VISIBLE
  6
Continuous
 62
     7
100
AcDbLine
 10
6.655359448353961
 20
-0.5118025756993815
 30
0.0
 11
6.155359448353959
 21
-0.5118025756993815
 31
0.0
  0
LINE
  5
15D
330
1F
100
AcDbEntity
  8
VISIBLE
  6
Continuous
 62
     7
100
AcDbLine
 10
8.436609448353959
 20
0.1131974243006185
 30
0.0
 11
9.467859448353959
 21
0.1131974243006185
 31
0.0
  0
ARC
  5
15E
330
1F
100
AcDbEntity
  8
VISIBLE
  6
Continuous
 62
     7
100
AcDbCircle
 10
5.561609448358918
 20
-0.418052575704341
 30
0.0
 40
0.2499999999999951
100
AcDbArc
 50
225.0000000000007
 51
270.0
  0
LINE
  5
15F
330
1F
100
AcDbEntity
  8
VISIBLE
  6
Continuous
 62
     7
100
AcDbLine
 10
5.384832753062282
 20
-0.5948292710009766
 30
0.0
 11
4.978582753057323
 21
-0.1885792709960187
 31
0.0
  0
LINE
  5
160
330
1F
100
AcDbEntity
  8
VISIBLE
  6
Continuous
 62
     7
100
AcDbLine
 10
6.155359448353959
 20
-0.5118025756993815
 30
0.0
 11
6.155359448353959
 21
-0.6680525757043374
 31
0.0
  0
ARC
  5
161
330
1F
100
AcDbEntity
  8
VISIBLE
  6
Continuous
 62
     7
100
AcDbCircle
 10
5.155359448353963
 20
-0.0118025756993831
 30
0.0
 40
0.2500000000000038
100
AcDbArc
 50
135.0000000000002
 51
224.999999999999
  0
LINE
  5
162
330
1F
100
AcDbEntity
  8
VISIBLE
  6
Continuous
 62
     7
100
AcDbLine
 10
7.467859448353958
 20
0.408197424295659
 30
0.0
 11
9.467859448353959
 21
0.408197424295659
 31
0.0
  0
CIRCLE
  5
163
330
1F
100
AcDbEntity
  8
VISIBLE
  6
Continuous
 62
     7
100
AcDbCircle
 10
7.905359448353961
 20
0.2381974243006178
 30
0.0
 40
0.0500000000000007
  0
CIRCLE
  5
164
330
1F
100
AcDbEntity
  8
VISIBLE
  6
Continuous
 62
     7
100
AcDbCircle
 10
5.530359448353959
 20
-0.0118025756993831
 30
0.0
 40
0.0800000000000018
  0
CIRCLE
  5
165
330
1F
100
AcDbEntity
  8
VISIBLE
  6
Continuous
 62
     7
100
AcDbCircle
 10
7.905359448353961
 20
-0.2618025756993818
 30
0.0
 40
0.0500000000000007
  0
LINE
  5
166
330
1F
100
AcDbEntity
  8
VISIBLE
  6
Continuous
 62
     7
100
AcDbLine
 10
7.467859448353958
 20
0.6444474242956628
 30
0.0
 11
7.467859448353958
 21
0.408197424295659
 31
0.0
  0
LINE
  5
167
330
1F
100
AcDbEntity
  8
VISIBLE
  6
Continuous
 62
     7
100
AcDbLine
 10
7.467859448353958
 20
-0.4318025757043381
 30
0.0
 11
7.467859448353958
 21
-0.668052575704333
 31
0.0
  0
LINE
  5
168
330
1F
100
AcDbEntity
  8
VISIBLE
  6
Continuous
 62
     7
100
AcDbLine
 10
7.467859448353958
 20
-0.668052575704333
 30
0.0
 11
6.655359448353961
 21
-0.668052575704333
 31
0.0
  0
LINE
  5
169
330
1F
100
AcDbEntity
  8
VISIBLE
  6
Continuous
 62
     7
100
AcDbLine
 10
6.155359448353959
 20
0.4881974242956628
 30
0.0
 11
6.655359448353961
 21
0.4881974242956628
 31
0.0
  0
LINE
  5
16A
330
1F
100
AcDbEntity
  8
VISIBLE
  6
Continuous
 62
     7
100
AcDbLine
 10
6.155359448353959
 20
-0.6680525757043374
 30
0.0
 11
5.561609448358918
 21
-0.6680525757043374
 31
0.0
  0
LINE
  5
16B
330
1F
100
AcDbEntity
  8
VISIBLE
  6
Continuous
 62
     7
100
AcDbLine
 10
9.467859448353959
 20
-0.4318025757043381
 30
0.0
 11
7.467859448353958
 21
-0.4318025757043381
 31
0.0
  0
LINE
  5
16C
330
1F
100
AcDbEntity
  8
VISIBLE
  6
Continuous
 62
     7
100
AcDbLine
 10
9.467859448353959
 20
-0.1368025756993813
 30
0.0
 11
9.467859448353959
 21
-0.4318025757043358
 31
0.0
  0
CIRCLE
  5
16D
330
1F
100
AcDbEntity
  8
VISIBLE
  6
Continuous
 62
     7
100
AcDbCircle
 10
6.40535944835396
 20
-0.0118025756993831
 30
0.0
 40
0.3125
  0
LINE
  5
16E
330
1F
100
AcDbEntity
  8
VISIBLE
  6
Continuous
 62
     7
100
AcDbLine
 10
6.655359448353961
 20
-0.6680525757043374
 30
0.0
 11
6.655359448353961
 21
-0.5118025756993815
 31
0.0
  0
LINE
  5
16F
330
1F
100
AcDbEntity
  8
VISIBLE
  6
Continuous
 62
     7
100
AcDbLine
 10
6.655359448353961
 20
0.4881974242956628
 30
0.0
 11
6.655359448353961
 21
0.6444474242956628
 31
0.0
  0
LINE
  5
170
330
1F
100
AcDbEntity
  8
VISIBLE
  6
Continuous
 62
     7
100
AcDbLine
 10
5.611672393862583
 20
-0.927107616919853
 30
0.0
 11
5.611672393862583
 21
-1.767107616919853
 31
0.0
  0
LINE
  5
171
330
1F
100
AcDbEntity
  8
VISIBLE
  6
Continuous
 62
     7
100
AcDbLine
 10
3.799172393862584
 20
-1.767107616919853
 30
0.0
 11
3.799172393862584
 21
-1.628357616919854
 31
0.0
  0
LINE
  5
172
330
1F
100
AcDbEntity
  8
VISIBLE
  6
Continuous
 62
     7
100
AcDbLine
 10
4.111672393862583
 20
-1.222107616919853
 30
0.0
 11
4.111672393862583
 21
-1.472107616919854
 31
0.0
  0
LINE
  5
173
330
1F
100
AcDbEntity
  8
VISIBLE
  6
Continuous
 62
     7
100
AcDbLine
 10
3.799172393862584
 20
-0.927107616919853
 30
0.0
 11
5.611672393862583
 21
-0.927107616919853
 31
0.0
  0
LINE
  5
174
330
1F
100
AcDbEntity
  8
VISIBLE
  6
Continuous
 62
     7
100
AcDbLine
 10
3.799172393862584
 20
-1.065857616919853
 30
0.0
 11
4.111672393862583
 21
-1.222107616919853
 31
0.0
  0
LINE
  5
175
330
1F
100
AcDbEntity
  8
VISIBLE
  6
Continuous
 62
     7
100
AcDbLine
 10
4.111672393862583
 20
-1.472107616919854
 30
0.0
 11
3.799172393862584
 21
-1.628357616919854
 31
0.0
  0
LINE
  5
176
330
1F
100
AcDbEntity
  8
VISIBLE
  6
Continuous
 62
     7
100
AcDbLine
 10
5.611672393862583
 20
-1.767107616919853
 30
0.0
 11
3.799172393862584
 21
-1.767107616919853
 31
0.0
  0
LINE
  5
177
330
1F
100
AcDbEntity
  8
VISIBLE
  6
Continuous
 62
     7
100
AcDbLine
 10
3.799172393862584
 20
-1.065857616919853
 30
0.0
 11
3.799172393862584
 21
-0.927107616919853
 31
0.0
  0
CIRCLE
  5
178
330
1F
100
AcDbEntity
  8
VISIBLE
  6
Continuous
 62
     7
100
AcDbCircle
 10
4.861672393862583
 20
-1.347107616919855
 30
0.0
 40
0.28125
  0
LINE
  5
179
330
1F
100
AcDbEntity
  8
VISIBLE
  6
Continuous
 62
     7
100
AcDbLine
 10
0.6365194395206815
 20
-1.051705212615286
 30
0.0
 11
3.155269439520681
 21
-1.051705212615286
 31
0.0
  0
ARC
  5
17A
330
1F
100
AcDbEntity
  8
VISIBLE
  6
Continuous
 62
     7
100
AcDbCircle
 10
3.155269439520681
 20
-0.4317052126152875
 30
0.0
 40
0.2000000000000002
100
AcDbArc
 50
0.0
 51
90.0
  0
LINE
  5
17B
330
1F
100
AcDbEntity
  8
VISIBLE
  6
Continuous
 62
     7
100
AcDbLine
 10
3.155269439520681
 20
-0.2317052126152859
 30
0.0
 11
0.6365194395206819
 21
-0.2317052126152859
 31
0.0
  0
ARC
  5
17C
330
1F
100
AcDbEntity
  8
VISIBLE
  6
Continuous
 62
     7
100
AcDbCircle
 10
3.155269439520681
 20
-0.8517052126152866
 30
0.0
 40
0.1999999999999993
100
AcDbArc
 50
270.0
 51
0.0
  0
CIRCLE
  5
17D
330
1F
100
AcDbEntity
  8
VISIBLE
  6
Continuous
 62
     7
100
AcDbCircle
 10
1.417769439520681
 20
-0.6417052126152877
 30
0.0
 40
0.0600000000000001
  0
LINE
  5
17E
330
1F
100
AcDbEntity
  8
VISIBLE
  6
Continuous
 62
     7
100
AcDbLine
 10
0.6365194395206815
 20
-0.2317052126152859
 30
0.0
 11
0.6365194395206815
 21
-1.051705212615286
 31
0.0
  0
CIRCLE
  5
17F
330
1F
100
AcDbEntity
  8
VISIBLE
  6
Continuous
 62
     7
100
AcDbCircle
 10
2.324019439520681
 20
-0.6417052126152877
 30
0.0
 40
0.28125
  0
LINE
  5
180
330
1F
100
AcDbEntity
  8
VISIBLE
  6
Continuous
 62
     7
100
AcDbLine
 10
3.355269439520681
 20
-0.8517052126152866
 30
0.0
 11
3.355269439520681
 21
-0.4317052126152875
 31
0.0
  0
LINE
  5
181
330
1F
100
AcDbEntity
  8
VISIBLE
  6
Continuous
 62
     7
100
AcDbLine
 10
0.6369992803775197
 20
0.3521278336445565
 30
0.0
 11
1.10574928037752
 21
0.3521278336445565
 31
0.0
  0
LINE
  5
182
330
1F
100
AcDbEntity
  8
VISIBLE
  6
Continuous
 62
     7
100
AcDbLine
 10
3.355749280377519
 20
0.0571278336445566
 30
0.0
 11
3.355749280377519
 21
0.3971278336445564
 31
0.0
  0
CIRCLE
  5
183
330
1F
100
AcDbEntity
  8
VISIBLE
  6
Continuous
 62
     7
100
AcDbCircle
 10
1.32449928037752
 20
0.227127833644556
 30
0.0
 40
0.0529999999999997
  0
ARC
  5
184
330
1F
100
AcDbEntity
  8
VISIBLE
  6
Continuous
 62
     7
100
AcDbCircle
 10
3.105749280377519
 20
0.3971278336445564
 30
0.0
 40
0.25
100
AcDbArc
 50
0.0
 51
90.0
  0
CIRCLE
  5
185
330
1F
100
AcDbEntity
  8
VISIBLE
  6
Continuous
 62
     7
100
AcDbCircle
 10
2.386999280377519
 20
0.227127833644556
 30
0.0
 40
0.0530000000000008
  0
CIRCLE
  5
186
330
1F
100
AcDbEntity
  8
VISIBLE
  6
Continuous
 62
     7
100
AcDbCircle
 10
3.105749280377519
 20
0.227127833644556
 30
0.0
 40
0.0769999999999995
  0
CIRCLE
  5
187
330
1F
100
AcDbEntity
  8
VISIBLE
  6
Continuous
 62
     7
100
AcDbCircle
 10
1.855749280377519
 20
0.227127833644556
 30
0.0
 40
0.3125000000000009
  0
ARC
  5
188
330
1F
100
AcDbEntity
  8
VISIBLE
  6
Continuous
 62
     7
100
AcDbCircle
 10
3.105749280377519
 20
0.0571278336445533
 30
0.0
 40
0.2499999999999964
100
AcDbArc
 50
270.0
 51
0.0000000000007697
  0
LINE
  5
189
330
1F
100
AcDbEntity
  8
VISIBLE
  6
Continuous
 62
     7
100
AcDbLine
 10
0.6369992803775197
 20
0.6471278336445574
 30
0.0
 11
0.6369992803775197
 21
0.3521278336445565
 31
0.0
  0
LINE
  5
18A
330
1F
100
AcDbEntity
  8
VISIBLE
  6
Continuous
 62
     7
100
AcDbLine
 10
3.105749280377519
 20
0.6471278336445574
 30
0.0
 11
0.6369992803775197
 21
0.6471278336445574
 31
0.0
  0
LINE
  5
18B
330
1F
100
AcDbEntity
  8
VISIBLE
  6
Continuous
 62
     7
100
AcDbLine
 10
0.6369992803775197
 20
-0.1928721663554431
 30
0.0
 11
3.105749280377519
 21
-0.1928721663554431
 31
0.0
  0
LINE
  5
18C
330
1F
100
AcDbEntity
  8
VISIBLE
  6
Continuous
 62
     7
100
AcDbLine
 10
0.6369992803775197
 20
0.1021278336445567
 30
0.0
 11
0.6369992803775197
 21
-0.1928721663554431
 31
0.0
  0
LINE
  5
18D
330
1F
100
AcDbEntity
  8
VISIBLE
  6
Continuous
 62
     7
100
AcDbLine
 10
1.10574928037752
 20
0.1021278336445567
 30
0.0
 11
0.6369992803775197
 21
0.1021278336445567
 31
0.0
  0
LINE
  5
18E
330
1F
100
AcDbEntity
  8
VISIBLE
  6
Continuous
 62
     7
100
AcDbLine
 10
1.10574928037752
 20
0.3521278336445565
 30
0.0
 11
1.10574928037752
 21
0.1021278336445567
 31
0.0
  0
LINE
  5
18F
330
1F
100
AcDbEntity
  8
VISIBLE
  6
Continuous
 62
     7
100
AcDbLine
 10
4.040016379968157
 20
-2.497751845397027
 30
0.0
 11
4.433766379968157
 21
-2.497751845397027
 31
0.0
  0
ARC
  5
190
330
1F
100
AcDbEntity
  8
VISIBLE
  6
Continuous
 62
     7
100
AcDbCircle
 10
9.165016379968156
 20
-2.917751845397027
 30
0.0
 40
0.3535533905932747
100
AcDbArc
 50
315.0000000000002
 51
44.99999999999984
  0
LINE
  5
191
330
1F
100
AcDbEntity
  8
VISIBLE
  6
Continuous
 62
     7
100
AcDbLine
 10
6.352516379968157
 20
-3.042751845397027
 30
0.0
 11
5.008766379968156
 21
-3.042751845397027
 31
0.0
  0
LINE
  5
192
330
1F
100
AcDbEntity
  8
VISIBLE
  6
Continuous
 62
     7
100
AcDbLine
 10
6.883766379968157
 20
-3.567751845397027
 30
0.0
 11
6.883766379968157
 21
-3.337751845397027
 31
0.0
  0
LINE
  5
193
330
1F
100
AcDbEntity
  8
VISIBLE
  6
Continuous
 62
     7
100
AcDbLine
 10
9.008766379968156
 20
-2.261501845397027
 30
0.0
 11
9.415016379968158
 21
-2.667751845397029
 31
0.0
  0
LINE
  5
194
330
1F
100
AcDbEntity
  8
VISIBLE
  6
Continuous
 62
     7
100
AcDbLine
 10
5.008766379968156
 20
-3.042751845397027
 30
0.0
 11
4.484979583403754
 21
-2.518965048832625
 31
0.0
  0
CIRCLE
  5
195
330
1F
100
AcDbEntity
  8
VISIBLE
  6
Continuous
 62
     7
100
AcDbCircle
 10
4.227516379968156
 20
-3.042751845397027
 30
0.0
 40
0.0529999999999999
  0
LINE
  5
196
330
1F
100
AcDbEntity
  8
VISIBLE
  6
Continuous
 62
     7
100
AcDbLine
 10
6.696266379968155
 20
-3.136501845397027
 30
0.0
 11
6.352516379968157
 21
-3.042751845397027
 31
0.0
  0
LINE
  5
197
330
1F
100
AcDbEntity
  8
VISIBLE
  6
Continuous
 62
     7
100
AcDbLine
 10
6.352516379968157
 20
-2.497751845397027
 30
0.0
 11
6.352516379968157
 21
-2.886501845397027
 31
0.0
  0
ARC
  5
198
330
1F
100
AcDbEntity
  8
VISIBLE
  6
Continuous
 62
     7
100
AcDbCircle
 10
8.7231926908076
 20
-4.07400184539702
 30
0.0
 40
0.4999999999999929
100
AcDbArc
 50
90.0
 51
123.8985851297922
  0
LINE
  5
199
330
1F
100
AcDbEntity
  8
VISIBLE
  6
Continuous
 62
     7
100
AcDbLine
 10
6.883766379968157
 20
-2.497751845397027
 30
0.0
 11
6.883766379968157
 21
-2.267751845397028
 31
0.0
  0
LINE
  5
19A
330
1F
100
AcDbEntity
  8
VISIBLE
  6
Continuous
 62
     7
100
AcDbLine
 10
7.160118458152811
 20
-3.567751845397027
 30
0.0
 11
6.883766379968157
 21
-3.567751845397027
 31
0.0
  0
LINE
  5
19B
330
1F
100
AcDbEntity
  8
VISIBLE
  6
Continuous
 62
     7
100
AcDbLine
 10
9.008766379968156
 20
-3.574001845397027
 30
0.0
 11
8.7231926908076
 21
-3.574001845397027
 31
0.0
  0
LINE
  5
19C
330
1F
100
AcDbEntity
  8
VISIBLE
  6
Continuous
 62
     7
100
AcDbLine
 10
4.433766379968157
 20
-2.497751845397027
 30
0.0
 11
4.484979583403753
 21
-2.518965048832624
 31
0.0
  0
LINE
  5
19D
330
1F
100
AcDbEntity
  8
VISIBLE
  6
Continuous
 62
     7
100
AcDbLine
 10
6.352516379968157
 20
-2.886501845397027
 30
0.0
 11
6.696266379968155
 21
-2.980251845397027
 31
0.0
  0
ARC
  5
19E
330
1F
100
AcDbEntity
  8
VISIBLE
  6
Continuous
 62
     7
100
AcDbCircle
 10
7.160118458152812
 20
-1.767751845397032
 30
0.0
 40
0.4999999999999942
100
AcDbArc
 50
270.0
 51
304.3567805322081
  0
ARC
  5
19F
330
1F
100
AcDbEntity
  8
VISIBLE
  6
Continuous
 62
     7
100
AcDbCircle
 10
8.723192690807599
 20
-1.761501845397021
 30
0.0
 40
0.5000000000000075
100
AcDbArc
 50
236.101414870209
 51
270.0
  0
ARC
  5
1A0
330
1F
100
AcDbEntity
  8
VISIBLE
  6
Continuous
 62
     7
100
AcDbCircle
 10
7.946266379968158
 20
-2.917751845397026
 30
0.0
 40
0.7500000000000039
100
AcDbArc
 50
196.9577633000043
 51
184.7801918471992
  0
LINE
  5
1A1
330
1F
100
AcDbEntity
  8
VISIBLE
  6
Continuous
 62
     7
100
AcDbLine
 10
6.352516379968157
 20
-2.497751845397027
 30
0.0
 11
6.883766379968157
 21
-2.497751845397027
 31
0.0
  0
CIRCLE
  5
1A2
330
1F
100
AcDbEntity
  8
VISIBLE
  6
Continuous
 62
     7
100
AcDbCircle
 10
4.571266379968157
 20
-3.167751845397027
 30
0.0
 40
0.0529999999999999
  0
LINE
  5
1A3
330
1F
100
AcDbEntity
  8
VISIBLE
  6
Continuous
 62
     7
100
AcDbLine
 10
9.415016379968158
 20
-3.167751845397027
 30
0.0
 11
9.008766379968156
 21
-3.574001845397028
 31
0.0
  0
LINE
  5
1A4
330
1F
100
AcDbEntity
  8
VISIBLE
  6
Continuous
 62
     7
100
AcDbLine
 10
7.228876362265092
 20
-3.136501845397027
 30
0.0
 11
6.696266379968155
 21
-3.136501845397027
 31
0.0
  0
ARC
  5
1A5
330
1F
100
AcDbEntity
  8
VISIBLE
  6
Continuous
 62
     7
100
AcDbCircle
 10
7.946266379968154
 20
-2.917751845397023
 30
0.0
 40
0.8930285549745833
100
AcDbArc
 50
56.10141487020813
 51
124.3567805322076
  0
CIRCLE
  5
1A6
330
1F
100
AcDbEntity
  8
VISIBLE
  6
Continuous
 62
     7
100
AcDbCircle
 10
9.196266379968158
 20
-2.917751845397027
 30
0.0
 40
0.25
  0
LINE
  5
1A7
330
1F
100
AcDbEntity
  8
VISIBLE
  6
Continuous
 62
     7
100
AcDbLine
 10
4.040016379968157
 20
-3.337751845397027
 30
0.0
 11
4.040016379968157
 21
-2.497751845397027
 31
0.0
  0
LINE
  5
1A8
330
1F
100
AcDbEntity
  8
VISIBLE
  6
Continuous
 62
     7
100
AcDbLine
 10
6.883766379968157
 20
-3.337751845397027
 30
0.0
 11
4.040016379968157
 21
-3.337751845397027
 31
0.0
  0
LINE
  5
1A9
330
1F
100
AcDbEntity
  8
VISIBLE
  6
Continuous
 62
     7
100
AcDbLine
 10
6.696266379968155
 20
-2.980251845397027
 30
0.0
 11
7.198875083524316
 21
-2.980251845397027
 31
0.0
  0
LINE
  5
1AA
330
1F
100
AcDbEntity
  8
VISIBLE
  6
Continuous
 62
     7
100
AcDbLine
 10
6.883766379968157
 20
-2.267751845397028
 30
0.0
 11
7.160118458152812
 21
-2.267751845397028
 31
0.0
  0
CIRCLE
  5
1AB
330
1F
100
AcDbEntity
  8
VISIBLE
  6
Continuous
 62
     7
100
AcDbCircle
 10
7.040016379968157
 20
-2.480251845397029
 30
0.0
 40
0.0499999999999972
  0
CIRCLE
  5
1AC
330
1F
100
AcDbEntity
  8
VISIBLE
  6
Continuous
 62
     7
100
AcDbCircle
 10
6.540016379968155
 20
-2.667751845397027
 30
0.0
 40
0.0500000000000016
  0
LINE
  5
1AD
330
1F
100
AcDbEntity
  8
VISIBLE
  6
Continuous
 62
     7
100
AcDbLine
 10
8.723192690807599
 20
-2.261501845397027
 30
0.0
 11
9.008766379968156
 21
-2.261501845397027
 31
0.0
  0
ARC
  5
1AE
330
1F
100
AcDbEntity
  8
VISIBLE
  6
Continuous
 62
     7
100
AcDbCircle
 10
7.160118458152811
 20
-4.06775184539702
 30
0.0
 40
0.4999999999999919
100
AcDbArc
 50
55.64321946779189
 51
90.0
  0
ARC
  5
1AF
330
1F
100
AcDbEntity
  8
VISIBLE
  6
Continuous
 62
     7
100
AcDbCircle
 10
7.946266379968159
 20
-2.917751845397026
 30
0.0
 40
0.8930285549745919
100
AcDbArc
 50
235.6432194677922
 51
303.8985851297917
  0
CIRCLE
  5
1B0
330
1F
100
AcDbEntity
  8
VISIBLE
  6
Continuous
 62
     7
100
AcDbCircle
 10
7.040016379968157
 20
-3.355251845397027
 30
0.0
 40
0.0499999999999972
  0
LINE
  5
1B1
330
1F
100
AcDbEntity
  8
VISIBLE
  6
Continuous
 62
     7
100
AcDbLine
 10
0.9236677385560554
 20
-1.595069547322317
 30
0.0
 11
0.6552927385555247
 21
-1.595069547322317
 31
0.0
  0
LINE
  5
1B2
330
1F
100
AcDbEntity
  8
VISIBLE
  6
Continuous
 62
     7
100
AcDbLine
 10
0.6552927385555314
 20
-1.365069547322318
 30
0.0
 11
0.7702927385555319
 21
-1.365069547322318
 31
0.0
  0
CIRCLE
  5
1B3
330
1F
100
AcDbEntity
  8
VISIBLE
  6
Continuous
 62
     7
100
AcDbCircle
 10
2.926542738555614
 20
-1.938819547322491
 30
0.0
 40
0.1250000000000004
  0
LINE
  5
1B4
330
1F
100
AcDbEntity
  8
VISIBLE
  6
Continuous
 62
     7
100
AcDbLine
 10
3.727792738555614
 20
-1.376319547322491
 30
0.0
 11
3.176542738555614
 21
-1.376319547322491
 31
0.0
  0
LINE
  5
1B5
330
1F
100
AcDbEntity
  8
VISIBLE
  6
Continuous
 62
     7
100
AcDbLine
 10
0.7702927385555319
 20
-1.282569547322408
 30
0.0
 11
1.004667738555568
 21
-1.095069547322427
 31
0.0
  0
LINE
  5
1B6
330
1F
100
AcDbEntity
  8
VISIBLE
  6
Continuous
 62
     7
100
AcDbLine
 10
3.727792738555614
 20
-2.345069547322523
 30
0.0
 11
2.957792738555701
 21
-2.345069547322523
 31
0.0
  0
LINE
  5
1B7
330
1F
100
AcDbEntity
  8
VISIBLE
  6
Continuous
 62
     7
100
AcDbLine
 10
2.957792738555701
 20
-2.345069547322523
 30
0.0
 11
0.9236677385560549
 21
-1.595069547322317
 31
0.0
  0
LINE
  5
1B8
330
1F
100
AcDbEntity
  8
VISIBLE
  6
Continuous
 62
     7
100
AcDbLine
 10
3.176542738555614
 20
-1.376319547322491
 30
0.0
 11
3.176542738555614
 21
-2.063819547322492
 31
0.0
  0
LINE
  5
1B9
330
1F
100
AcDbEntity
  8
VISIBLE
  6
Continuous
 62
     7
100
AcDbLine
 10
3.727792738555614
 20
-2.063819547322492
 30
0.0
 11
3.727792738555614
 21
-2.345069547322523
 31
0.0
  0
LINE
  5
1BA
330
1F
100
AcDbEntity
  8
VISIBLE
  6
Continuous
 62
     7
100
AcDbLine
 10
3.727792738555615
 20
-1.095069547322427
 30
0.0
 11
3.727792738555615
 21
-1.376319547322491
 31
0.0
  0
LINE
  5
1BB
330
1F
100
AcDbEntity
  8
VISIBLE
  6
Continuous
 62
     7
100
AcDbLine
 10
1.004667738555568
 20
-1.095069547322427
 30
0.0
 11
3.727792738555614
 21
-1.095069547322427
 31
0.0
  0
CIRCLE
  5
1BC
330
1F
100
AcDbEntity
  8
VISIBLE
  6
Continuous
 62
     7
100
AcDbCircle
 10
2.582792738555614
 20
-1.720069547322492
 30
0.0
 40
0.125
  0
LINE
  5
1BD
330
1F
100
AcDbEntity
  8
VISIBLE
  6
Continuous
 62
     7
100
AcDbLine
 10
0.7702927385555319
 20
-1.365069547322318
 30
0.0
 11
0.7702927385555319
 21
-1.282569547322408
 31
0.0
  0
CIRCLE
  5
1BE
330
1F
100
AcDbEntity
  8
VISIBLE
  6
Continuous
 62
     7
100
AcDbCircle
 10
0.6552927385555314
 20
-1.480069547322317
 30
0.0
 40
0.0350000000000006
  0
ARC
  5
1BF
330
1F
100
AcDbEntity
  8
VISIBLE
  6
Continuous
 62
     7
100
AcDbCircle
 10
0.6552927385555314
 20
-1.480069547322317
 30
0.0
 40
0.1149999999999995
100
AcDbArc
 50
90.0
 51
270.0
  0
LINE
  5
1C0
330
1F
100
AcDbEntity
  8
VISIBLE
  6
Continuous
 62
     7
100
AcDbLine
 10
3.176542738555614
 20
-2.063819547322492
 30
0.0
 11
3.727792738555614
 21
-2.063819547322492
 31
0.0
  0
CIRCLE
  5
1C1
330
1F
100
AcDbEntity
  8
VISIBLE
  6
Continuous
 62
     7
100
AcDbCircle
 10
2.926542738555614
 20
-1.501319547322493
 30
0.0
 40
0.1250000000000004
  0
ARC
  5
1C2
330
1F
100
AcDbEntity
  8
VISIBLE
  6
Continuous
 62
     7
100
AcDbCircle
 10
1.037184902945691
 20
-2.993917070957167
 30
0.0
 40
0.4999999999999964
100
AcDbArc
 50
180.0
 51
251.7371100577992
  0
ARC
  5
1C3
330
1F
100
AcDbEntity
  8
VISIBLE
  6
Continuous
 62
     7
100
AcDbCircle
 10
1.485499135079198
 20
-3.144501175452277
 30
0.0
 40
0.3124999999999652
100
AcDbArc
 50
205.2011236454678
 51
270.0
  0
LINE
  5
1C4
330
1F
100
AcDbEntity
  8
VISIBLE
  6
Continuous
 62
     7
100
AcDbLine
 10
1.318434902945656
 20
-3.613251175452215
 30
0.0
 11
0.8804961758436962
 21
-3.468731395508519
 31
0.0
  0
LINE
  5
1C5
330
1F
100
AcDbEntity
  8
VISIBLE
  6
Continuous
 62
     7
100
AcDbLine
 10
1.599684902945734
 20
-3.83200117545218
 30
0.0
 11
1.415657125167859
 21
-3.83200117545218
 31
0.0
  0
LINE
  5
1C6
330
1F
100
AcDbEntity
  8
VISIBLE
  6
Continuous
 62
     7
100
AcDbLine
 10
0.6621849029456952
 20
-2.394501175451987
 30
0.0
 11
0.7078592100924139
 21
-2.394501175451987
 31
0.0
  0
ARC
  5
1C7
330
1F
100
AcDbEntity
  8
VISIBLE
  6
Continuous
 62
     7
100
AcDbCircle
 10
1.599684902945734
 20
-3.70700117545218
 30
0.0
 40
0.1249999999999996
100
AcDbArc
 50
270.0
 51
0.0
  0
LINE
  5
1C8
330
1F
100
AcDbEntity
  8
VISIBLE
  6
Continuous
 62
     7
100
AcDbLine
 10
0.8209615478675457
 20
-2.466276545910759
 30
0.0
 11
1.202743290641392
 21
-3.277562749305313
 31
0.0
  0
ARC
  5
1C9
330
1F
100
AcDbEntity
  8
VISIBLE
  6
Continuous
 62
     7
100
AcDbCircle
 10
0.7078592100924264
 20
-2.519501175451994
 30
0.0
 40
0.1249999999999955
100
AcDbArc
 50
25.201123645476
 51
90.0
  0
ARC
  5
1CA
330
1F
100
AcDbEntity
  8
VISIBLE
  6
Continuous
 62
     7
100
AcDbCircle
 10
0.6621849029456952
 20
-2.519501175451987
 30
0.0
 40
0.1249999999999996
100
AcDbArc
 50
90.0
 51
180.0
  0
CIRCLE
  5
1CB
330
1F
100
AcDbEntity
  8
VISIBLE
  6
Continuous
 62
     7
100
AcDbCircle
 10
0.6934349029456544
 20
-2.519501175452215
 30
0.0
 40
0.0500000000000005
  0
LINE
  5
1CC
330
1F
100
AcDbEntity
  8
VISIBLE
  6
Continuous
 62
     7
100
AcDbLine
 10
1.415657125167859
 20
-3.83200117545218
 30
0.0
 11
1.318434902945656
 21
-3.613251175452215
 31
0.0
  0
LINE
  5
1CD
330
1F
100
AcDbEntity
  8
VISIBLE
  6
Continuous
 62
     7
100
AcDbLine
 10
1.724684902945735
 20
-3.457001175452247
 30
0.0
 11
1.724684902945735
 21
-3.70700117545218
 31
0.0
  0
LINE
  5
1CE
330
1F
100
AcDbEntity
  8
VISIBLE
  6
Continuous
 62
     7
100
AcDbLine
 10
0.5371849029456952
 20
-2.993917070957167
 30
0.0
 11
0.5371849029456952
 21
-2.519501175451987
 31
0.0
  0
LINE
  5
1CF
330
1F
100
AcDbEntity
  8
VISIBLE
  6
Continuous
 62
     7
100
AcDbLine
 10
1.485499135079198
 20
-3.457001175452243
 30
0.0
 11
1.724684902945727
 21
-3.457001175452243
 31
0.0
  0
LINE
  5
1D0
330
1F
100
AcDbEntity
  8
VISIBLE
  6
Continuous
 62
     7
100
AcDbLine
 10
6.096488366859077
 20
-2.975956496275956
 30
0.0
 11
6.033988366859078
 21
-2.975956496275956
 31
0.0
  0
LINE
  5
1D1
330
1F
100
AcDbEntity
  8
VISIBLE
  6
Continuous
 62
     7
100
AcDbLine
 10
5.752738366859084
 20
-2.694706496275956
 30
0.0
 11
6.033988366859078
 21
-2.975956496275956
 31
0.0
  0
ARC
  5
1D2
330
1F
100
AcDbEntity
  8
VISIBLE
  6
Continuous
 62
     7
100
AcDbCircle
 10
5.408988366859078
 20
-2.819706496275956
 30
0.0
 40
0.15625
100
AcDbArc
 50
180.0
 51
270.0
  0
LINE
  5
1D3
330
1F
100
AcDbEntity
  8
VISIBLE
  6
Continuous
 62
     7
100
AcDbLine
 10
5.47148836685908
 20
-2.975956496275956
 30
0.0
 11
5.408988366859078
 21
-2.975956496275956
 31
0.0
  0
ARC
  5
1D4
330
1F
100
AcDbEntity
  8
VISIBLE
  6
Continuous
 62
     7
100
AcDbCircle
 10
6.096488366859077
 20
-2.819706496275956
 30
0.0
 40
0.15625
100
AcDbArc
 50
270.0
 51
0.0
  0
CIRCLE
  5
1D5
330
1F
100
AcDbEntity
  8
VISIBLE
  6
Continuous
 62
     7
100
AcDbCircle
 10
6.096488366859077
 20
-2.819706496275956
 30
0.0
 40
0.0759999999999996
  0
LINE
  5
1D6
330
1F
100
AcDbEntity
  8
VISIBLE
  6
Continuous
 62
     7
100
AcDbLine
 10
5.877738366859078
 20
-1.913456496275955
 30
0.0
 11
6.252738366859077
 21
-2.604439501901005
 31
0.0
  0
CIRCLE
  5
1D7
330
1F
100
AcDbEntity
  8
VISIBLE
  6
Continuous
 62
     7
100
AcDbCircle
 10
5.408988366859078
 20
-2.819706496275956
 30
0.0
 40
0.0759999999999996
  0
LINE
  5
1D8
330
1F
100
AcDbEntity
  8
VISIBLE
  6
Continuous
 62
     7
100
AcDbLine
 10
6.252738366859077
 20
-2.604439501901007
 30
0.0
 11
6.252738366859077
 21
-2.819706496275956
 31
0.0
  0
LINE
  5
1D9
330
1F
100
AcDbEntity
  8
VISIBLE
  6
Continuous
 62
     7
100
AcDbLine
 10
5.627738366859077
 20
-1.913456496275955
 30
0.0
 11
5.752738366859079
 21
-1.788456496275957
 31
0.0
  0
LINE
  5
1DA
330
1F
100
AcDbEntity
  8
VISIBLE
  6
Continuous
 62
     7
100
AcDbLine
 10
5.752738366859079
 20
-1.788456496275957
 30
0.0
 11
5.877738366859078
 21
-1.913456496275955
 31
0.0
  0
LINE
  5
1DB
330
1F
100
AcDbEntity
  8
VISIBLE
  6
Continuous
 62
     7
100
AcDbLine
 10
5.252738366859078
 20
-2.604439501901007
 30
0.0
 11
5.627738366859077
 21
-1.913456496275958
 31
0.0
  0
LINE
  5
1DC
330
1F
100
AcDbEntity
  8
VISIBLE
  6
Continuous
 62
     7
100
AcDbLine
 10
5.471488366859081
 20
-2.975956496275953
 30
0.0
 11
5.752738366859084
 21
-2.694706496275956
 31
0.0
  0
LINE
  5
1DD
330
1F
100
AcDbEntity
  8
VISIBLE
  6
Continuous
 62
     7
100
AcDbLine
 10
5.252738366859078
 20
-2.819706496275956
 30
0.0
 11
5.252738366859078
 21
-2.604439501901007
 31
0.0
  0
ARC
  5
1DE
330
1F
100
AcDbEntity
  8
VISIBLE
  6
Continuous
 62
     7
100
AcDbCircle
 10
1.75780791930315
 20
-2.701123598038395
 30
0.0
 40
0.6799999999999993
100
AcDbArc
 50
21.57057830160865
 51
158.4294216983915
  0
CIRCLE
  5
1DF
330
1F
100
AcDbEntity
  8
VISIBLE
  6
Continuous
 62
     7
100
AcDbCircle
 10
2.101557919303149
 20
-2.357373598038396
 30
0.0
 40
0.0769999999999995
  0
ARC
  5
1E0
330
1F
100
AcDbEntity
  8
VISIBLE
  6
Continuous
 62
     7
100
AcDbCircle
 10
1.757807919303148
 20
-2.701123598038398
 30
0.0
 40
0.6799999999999988
100
AcDbArc
 50
201.5705783016087
 51
338.4294216983915
  0
LINE
  5
1E1
330
1F
100
AcDbEntity
  8
VISIBLE
  6
Continuous
 62
     7
100
AcDbLine
 10
1.25780791930315
 20
-2.451123598038397
 30
0.0
 11
1.125431449152654
 21
-2.451123598038397
 31
0.0
  0
CIRCLE
  5
1E2
330
1F
100
AcDbEntity
  8
VISIBLE
  6
Continuous
 62
     7
100
AcDbCircle
 10
2.101557919303149
 20
-3.044873598038397
 30
0.0
 40
0.0769999999999995
  0
LINE
  5
1E3
330
1F
100
AcDbEntity
  8
VISIBLE
  6
Continuous
 62
     7
100
AcDbLine
 10
2.257807919303149
 20
-2.951123598038396
 30
0.0
 11
2.390184389453644
 21
-2.951123598038396
 31
0.0
  0
LINE
  5
1E4
330
1F
100
AcDbEntity
  8
VISIBLE
  6
Continuous
 62
     7
100
AcDbLine
 10
2.390184389453646
 20
-2.451123598038397
 30
0.0
 11
2.25780791930315
 21
-2.451123598038397
 31
0.0
  0
CIRCLE
  5
1E5
330
1F
100
AcDbEntity
  8
VISIBLE
  6
Continuous
 62
     7
100
AcDbCircle
 10
1.41405791930315
 20
-3.044873598038397
 30
0.0
 40
0.0769999999999995
  0
LINE
  5
1E6
330
1F
100
AcDbEntity
  8
VISIBLE
  6
Continuous
 62
     7
100
AcDbLine
 10
1.125431449152653
 20
-2.951123598038396
 30
0.0
 11
1.25780791930315
 21
-2.951123598038396
 31
0.0
  0
LINE
  5
1E7
330
1F
100
AcDbEntity
  8
VISIBLE
  6
Continuous
 62
     7
100
AcDbLine
 10
1.25780791930315
 20
-2.951123598038396
 30
0.0
 11
1.25780791930315
 21
-2.451123598038397
 31
0.0
  0
CIRCLE
  5
1E8
330
1F
100
AcDbEntity
  8
VISIBLE
  6
Continuous
 62
     7
100
AcDbCircle
 10
1.757807919303149
 20
-2.701123598038396
 30
0.0
 40
0.3124999999999996
  0
CIRCLE
  5
1E9
330
1F
100
AcDbEntity
  8
VISIBLE
  6
Continuous
 62
     7
100
AcDbCircle
 10
1.41405791930315
 20
-2.357373598038396
 30
0.0
 40
0.0769999999999995
  0
LINE
  5
1EA
330
1F
100
AcDbEntity
  8
VISIBLE
  6
Continuous
 62
     7
100
AcDbLine
 10
2.257807919303149
 20
-2.451123598038397
 30
0.0
 11
2.257807919303149
 21
-2.951123598038396
 31
0.0
  0
ARC
  5
1EB
330
1F
100
AcDbEntity
  8
VISIBLE
  6
Continuous
 62
     7
100
AcDbCircle
 10
3.321114712756331
 20
-3.097349895251743
 30
0.0
 40
0.6800000000000004
100
AcDbArc
 50
21.57057830160873
 51
158.4294216983912
  0
CIRCLE
  5
1EC
330
1F
100
AcDbEntity
  8
VISIBLE
  6
Continuous
 62
     7
100
AcDbCircle
 10
3.66486471275633
 20
-2.753599895251743
 30
0.0
 40
0.077
  0
ARC
  5
1ED
330
1F
100
AcDbEntity
  8
VISIBLE
  6
Continuous
 62
     7
100
AcDbCircle
 10
3.321114712756329
 20
-3.097349895251744
 30
0.0
 40
0.6799999999999984
100
AcDbArc
 50
201.5705783016088
 51
338.4294216983915
  0
LINE
  5
1EE
330
1F
100
AcDbEntity
  8
VISIBLE
  6
Continuous
 62
     7
100
AcDbLine
 10
2.821114712756329
 20
-2.847349895251743
 30
0.0
 11
2.688738242605836
 21
-2.847349895251743
 31
0.0
  0
CIRCLE
  5
1EF
330
1F
100
AcDbEntity
  8
VISIBLE
  6
Continuous
 62
     7
100
AcDbCircle
 10
3.66486471275633
 20
-3.441099895251743
 30
0.0
 40
0.077
  0
LINE
  5
1F0
330
1F
100
AcDbEntity
  8
VISIBLE
  6
Continuous
 62
     7
100
AcDbLine
 10
3.82111471275633
 20
-3.347349895251744
 30
0.0
 11
3.953491182906825
 21
-3.347349895251744
 31
0.0
  0
LINE
  5
1F1
330
1F
100
AcDbEntity
  8
VISIBLE
  6
Continuous
 62
     7
100
AcDbLine
 10
3.953491182906826
 20
-2.847349895251743
 30
0.0
 11
3.821114712756331
 21
-2.847349895251743
 31
0.0
  0
CIRCLE
  5
1F2
330
1F
100
AcDbEntity
  8
VISIBLE
  6
Continuous
 62
     7
100
AcDbCircle
 10
2.977364712756329
 20
-3.441099895251743
 30
0.0
 40
0.0770000000000004
  0
LINE
  5
1F3
330
1F
100
AcDbEntity
  8
VISIBLE
  6
Continuous
 62
     7
100
AcDbLine
 10
2.688738242605834
 20
-3.347349895251744
 30
0.0
 11
2.821114712756329
 21
-3.347349895251744
 31
0.0
  0
LINE
  5
1F4
330
1F
100
AcDbEntity
  8
VISIBLE
  6
Continuous
 62
     7
100
AcDbLine
 10
2.821114712756329
 20
-3.347349895251744
 30
0.0
 11
2.821114712756329
 21
-2.847349895251743
 31
0.0
  0
CIRCLE
  5
1F5
330
1F
100
AcDbEntity
  8
VISIBLE
  6
Continuous
 62
     7
100
AcDbCircle
 10
3.32111471275633
 20
-3.097349895251743
 30
0.0
 40
0.3125
  0
CIRCLE
  5
1F6
330
1F
100
AcDbEntity
  8
VISIBLE
  6
Continuous
 62
     7
100
AcDbCircle
 10
2.977364712756329
 20
-2.753599895251743
 30
0.0
 40
0.0770000000000004
  0
LINE
  5
1F7
330
1F
100
AcDbEntity
  8
VISIBLE
  6
Continuous
 62
     7
100
AcDbLine
 10
3.82111471275633
 20
-2.847349895251743
 30
0.0
 11
3.82111471275633
 21
-3.347349895251744
 31
0.0
  0
ARC
  5
1F8
330
1F
100
AcDbEntity
  8
VISIBLE
  6
Continuous
 62
     7
100
AcDbCircle
 10
4.172586080539786
 20
-0.1372580565652463
 30
0.0
 40
0.6800000000000017
100
AcDbArc
 50
21.57057830160871
 51
158.4294216983911
  0
CIRCLE
  5
1F9
330
1F
100
AcDbEntity
  8
VISIBLE
  6
Continuous
 62
     7
100
AcDbCircle
 10
4.516336080539787
 20
0.2064919434347533
 30
0.0
 40
0.0769999999999991
  0
ARC
  5
1FA
330
1F
100
AcDbEntity
  8
VISIBLE
  6
Continuous
 62
     7
100
AcDbCircle
 10
4.172586080539785
 20
-0.1372580565652454
 30
0.0
 40
0.6800000000000007
100
AcDbArc
 50
201.5705783016087
 51
338.4294216983912
  0
LINE
  5
1FB
330
1F
100
AcDbEntity
  8
VISIBLE
  6
Continuous
 62
     7
100
AcDbLine
 10
3.672586080539786
 20
0.1127419434347555
 30
0.0
 11
3.540209610389291
 21
0.1127419434347558
 31
0.0
  0
CIRCLE
  5
1FC
330
1F
100
AcDbEntity
  8
VISIBLE
  6
Continuous
 62
     7
100
AcDbCircle
 10
4.516336080539787
 20
-0.481008056565248
 30
0.0
 40
0.0769999999999991
  0
LINE
  5
1FD
330
1F
100
AcDbEntity
  8
VISIBLE
  6
Continuous
 62
     7
100
AcDbLine
 10
4.672586080539785
 20
-0.3872580565652452
 30
0.0
 11
4.804962550690279
 21
-0.3872580565652455
 31
0.0
  0
LINE
  5
1FE
330
1F
100
AcDbEntity
  8
VISIBLE
  6
Continuous
 62
     7
100
AcDbLine
 10
4.804962550690283
 20
0.1127419434347535
 30
0.0
 11
4.672586080539785
 21
0.1127419434347544
 31
0.0
  0
CIRCLE
  5
1FF
330
1F
100
AcDbEntity
  8
VISIBLE
  6
Continuous
 62
     7
100
AcDbCircle
 10
3.828836080539787
 20
-0.481008056565248
 30
0.0
 40
0.077
  0
LINE
  5
200
330
1F
100
AcDbEntity
  8
VISIBLE
  6
Continuous
 62
     7
100
AcDbLine
 10
3.540209610389288
 20
-0.3872580565652449
 30
0.0
 11
3.672586080539785
 21
-0.3872580565652452
 31
0.0
  0
LINE
  5
201
330
1F
100
AcDbEntity
  8
VISIBLE
  6
Continuous
 62
     7
100
AcDbLine
 10
3.672586080539785
 20
-0.3872580565652452
 30
0.0
 11
3.672586080539786
 21
0.1127419434347555
 31
0.0
  0
CIRCLE
  5
202
330
1F
100
AcDbEntity
  8
VISIBLE
  6
Continuous
 62
     7
100
AcDbCircle
 10
4.172586080539786
 20
-0.1372580565652463
 30
0.0
 40
0.3125
  0
CIRCLE
  5
203
330
1F
100
AcDbEntity
  8
VISIBLE
  6
Continuous
 62
     7
100
AcDbCircle
 10
3.828836080539787
 20
0.2064919434347533
 30
0.0
 40
0.077
  0
LINE
  5
204
330
1F
100
AcDbEntity
  8
VISIBLE
  6
Continuous
 62
     7
100
AcDbLine
 10
4.672586080539785
 20
0.1127419434347544
 30
0.0
 11
4.672586080539785
 21
-0.3872580565652452
 31
0.0
  0
CIRCLE
  5
205
330
1F
100
AcDbEntity
  8
CONTINUOUS
  6
Continuous
 62
     7
100
AcDbCircle
 10
1.005934902945654
 20
-3.238251175452216
 30
0.0
 40
0.0760000000000001
  0
LINE
  5
206
330
1F
100
AcDbEntity
  8
VISIBLE
  6
Continuous
 62
     7
100
AcDbLine
 10
-0.1391503604225099
 20
1.533218669196835
 30
0.0
 11
-0.3891503604225097
 21
1.783218669196834
 31
0.0
  0
LINE
  5
207
330
1F
100
AcDbEntity
  8
VISIBLE
  6
Continuous
 62
     7
100
AcDbLine
 10
-0.0454003604225101
 20
3.533218669196833
 30
0.0
 11
-0.3891503604225097
 21
1.783218669196834
 31
0.0
  0
LINE
  5
208
330
1F
100
AcDbEntity
  8
VISIBLE
  6
Continuous
 62
     7
100
AcDbLine
 10
0.5170996395774908
 20
3.533218669196833
 30
0.0
 11
0.5170996395774908
 21
1.533218669196835
 31
0.0
  0
CIRCLE
  5
209
330
1F
100
AcDbEntity
  8
VISIBLE
  6
Continuous
 62
     7
100
AcDbCircle
 10
0.3820996395774896
 20
3.283218669196835
 30
0.0
 40
0.0770000000000026
  0
CIRCLE
  5
20A
330
1F
100
AcDbEntity
  8
VISIBLE
  6
Continuous
 62
     7
100
AcDbCircle
 10
0.3820996395774896
 20
1.783218669196834
 30
0.0
 40
0.0770000000000004
  0
LINE
  5
20B
330
1F
100
AcDbEntity
  8
VISIBLE
  6
Continuous
 62
     7
100
AcDbLine
 10
0.5170996395774908
 20
1.533218669196835
 30
0.0
 11
-0.1391503604225099
 21
1.533218669196835
 31
0.0
  0
LINE
  5
20C
330
1F
100
AcDbEntity
  8
VISIBLE
  6
Continuous
 62
     7
100
AcDbLine
 10
-0.0454003604225101
 20
3.533218669196833
 30
0.0
 11
0.5170996395774908
 21
3.533218669196833
 31
0.0
  0
LINE
  5
20D
330
1F
100
AcDbEntity
  8
VISIBLE
  6
Continuous
 62
     7
100
AcDbLine
 10
-0.1078960876612036
 20
5.22636421089109
 30
0.0
 11
-0.3578960876612034
 21
5.476364210891091
 31
0.0
  0
LINE
  5
20E
330
1F
100
AcDbEntity
  8
VISIBLE
  6
Continuous
 62
     7
100
AcDbLine
 10
-0.0141460876612027
 20
7.22636421089109
 30
0.0
 11
-0.3578960876612034
 21
5.476364210891091
 31
0.0
  0
LINE
  5
20F
330
1F
100
AcDbEntity
  8
VISIBLE
  6
Continuous
 62
     7
100
AcDbLine
 10
0.5483539123387959
 20
7.22636421089109
 30
0.0
 11
0.5483539123387959
 21
5.22636421089109
 31
0.0
  0
CIRCLE
  5
210
330
1F
100
AcDbEntity
  8
VISIBLE
  6
Continuous
 62
     7
100
AcDbCircle
 10
0.413353912338797
 20
6.97636421089109
 30
0.0
 40
0.0770000000000004
  0
CIRCLE
  5
211
330
1F
100
AcDbEntity
  8
VISIBLE
  6
Continuous
 62
     7
100
AcDbCircle
 10
0.413353912338797
 20
5.476364210891091
 30
0.0
 40
0.0770000000000004
  0
LINE
  5
212
330
1F
100
AcDbEntity
  8
VISIBLE
  6
Continuous
 62
     7
100
AcDbLine
 10
0.5483539123387959
 20
5.22636421089109
 30
0.0
 11
-0.1078960876612036
 21
5.22636421089109
 31
0.0
  0
LINE
  5
213
330
1F
100
AcDbEntity
  8
VISIBLE
  6
Continuous
 62
     7
100
AcDbLine
 10
-0.0141460876612027
 20
7.22636421089109
 30
0.0
 11
0.5483539123387959
 21
7.22636421089109
 31
0.0
  0
LINE
  5
214
330
1F
100
AcDbEntity
  8
VISIBLE
  6
Continuous
 62
     7
100
AcDbLine
 10
-0.2454696943887492
 20
5.029022697786675
 30
0.0
 11
-0.8231347373337032
 21
5.60668774073163
 31
0.0
  0
CIRCLE
  5
215
330
1F
100
AcDbEntity
  8
VISIBLE
  6
Continuous
 62
     7
100
AcDbCircle
 10
-1.534302215861225
 20
6.380355219259152
 30
0.0
 40
0.1250000000000004
  0
CIRCLE
  5
216
330
1F
100
AcDbEntity
  8
VISIBLE
  6
Continuous
 62
     7
100
AcDbCircle
 10
-0.4405522158612253
 20
7.870355219259152
 30
0.0
 40
0.0770000000000004
  0
LINE
  5
217
330
1F
100
AcDbEntity
  8
VISIBLE
  6
Continuous
 62
     7
100
AcDbLine
 10
-2.190552215861225
 20
7.817855219259151
 30
0.0
 11
-2.190552215861225
 21
4.505355219259152
 31
0.0
  0
ARC
  5
218
330
1F
100
AcDbEntity
  8
VISIBLE
  6
Continuous
 62
     7
100
AcDbCircle
 10
-2.003052215861225
 20
4.505355219259152
 30
0.0
 40
0.1874999999999996
100
AcDbArc
 50
180.0
 51
270.0
  0
LINE
  5
219
330
1F
100
AcDbEntity
  8
VISIBLE
  6
Continuous
 62
     7
100
AcDbLine
 10
-0.3780522158612251
 20
8.005355219259151
 30
0.0
 11
-2.003052215861225
 21
8.005355219259151
 31
0.0
  0
LINE
  5
21A
330
1F
100
AcDbEntity
  8
VISIBLE
  6
Continuous
 62
     7
100
AcDbLine
 10
-2.003052215861225
 20
4.317855219259152
 30
0.0
 11
-0.3780522158612251
 21
4.317855219259152
 31
0.0
  0
ARC
  5
21B
330
1F
100
AcDbEntity
  8
VISIBLE
  6
Continuous
 62
     7
100
AcDbCircle
 10
-0.6905522158612217
 20
6.583940176314195
 30
0.0
 40
0.1875000000000032
100
AcDbArc
 50
134.9999999999997
 51
180.0
  0
ARC
  5
21C
330
1F
100
AcDbEntity
  8
VISIBLE
  6
Continuous
 62
     7
100
AcDbCircle
 10
-0.6905522158612228
 20
5.739270262204108
 30
0.0
 40
0.1875000000000018
100
AcDbArc
 50
180.0
 51
224.9999999999997
  0
LINE
  5
21D
330
1F
100
AcDbEntity
  8
VISIBLE
  6
Continuous
 62
     7
100
AcDbLine
 10
-0.1905522158612256
 20
7.426770262204107
 30
0.0
 11
-0.1905522158612256
 21
7.817855219259151
 31
0.0
  0
CIRCLE
  5
21E
330
1F
100
AcDbEntity
  8
VISIBLE
  6
Continuous
 62
     7
100
AcDbCircle
 10
-1.940552215861226
 20
7.870355219259152
 30
0.0
 40
0.0770000000000026
  0
ARC
  5
21F
330
1F
100
AcDbEntity
  8
VISIBLE
  6
Continuous
 62
     7
100
AcDbCircle
 10
-0.3780522158612251
 20
4.505355219259152
 30
0.0
 40
0.1875
100
AcDbArc
 50
270.0
 51
0.0
  0
CIRCLE
  5
220
330
1F
100
AcDbEntity
  8
VISIBLE
  6
Continuous
 62
     7
100
AcDbCircle
 10
-1.190552215861226
 20
5.724105219259151
 30
0.0
 40
0.1250000000000004
  0
LINE
  5
221
330
1F
100
AcDbEntity
  8
VISIBLE
  6
Continuous
 62
     7
100
AcDbLine
 10
-0.8780522158612257
 20
5.739270262204108
 30
0.0
 11
-0.8780522158612257
 21
6.583940176314198
 31
0.0
  0
CIRCLE
  5
222
330
1F
100
AcDbEntity
  8
VISIBLE
  6
Continuous
 62
     7
100
AcDbCircle
 10
-1.190552215861226
 20
6.161605219259151
 30
0.0
 40
0.1250000000000004
  0
LINE
  5
223
330
1F
100
AcDbEntity
  8
VISIBLE
  6
Continuous
 62
     7
100
AcDbLine
 10
-0.1905522158612256
 20
4.505355219259152
 30
0.0
 11
-0.1905522158612256
 21
4.896440176314195
 31
0.0
  0
LINE
  5
224
330
1F
100
AcDbEntity
  8
VISIBLE
  6
Continuous
 62
     7
100
AcDbLine
 10
-0.823134737333701
 20
6.716522697786676
 30
0.0
 11
-0.2454696943887459
 21
7.29418774073163
 31
0.0
  0
CIRCLE
  5
225
330
1F
100
AcDbEntity
  8
VISIBLE
  6
Continuous
 62
     7
100
AcDbCircle
 10
-1.940552215861226
 20
4.452855219259151
 30
0.0
 40
0.0770000000000026
  0
CIRCLE
  5
226
330
1F
100
AcDbEntity
  8
VISIBLE
  6
Continuous
 62
     7
100
AcDbCircle
 10
-1.190552215861226
 20
6.599105219259151
 30
0.0
 40
0.1250000000000016
  0
CIRCLE
  5
227
330
1F
100
AcDbEntity
  8
VISIBLE
  6
Continuous
 62
     7
100
AcDbCircle
 10
-1.534302215861225
 20
5.942855219259151
 30
0.0
 40
0.1250000000000004
  0
ARC
  5
228
330
1F
100
AcDbEntity
  8
VISIBLE
  6
Continuous
 62
     7
100
AcDbCircle
 10
-0.3780522158612251
 20
7.817855219259151
 30
0.0
 40
0.1875000000000007
100
AcDbArc
 50
0.0
 51
90.0
  0
CIRCLE
  5
229
330
1F
100
AcDbEntity
  8
VISIBLE
  6
Continuous
 62
     7
100
AcDbCircle
 10
-0.4405522158612253
 20
4.452855219259151
 30
0.0
 40
0.0770000000000004
  0
CIRCLE
  5
22A
330
1F
100
AcDbEntity
  8
VISIBLE
  6
Continuous
 62
     7
100
AcDbCircle
 10
-1.878052215861227
 20
6.161605219259151
 30
0.0
 40
0.1250000000000027
  0
ARC
  5
22B
330
1F
100
AcDbEntity
  8
VISIBLE
  6
Continuous
 62
     7
100
AcDbCircle
 10
-0.3780522158612273
 20
7.426770262204107
 30
0.0
 40
0.1875000000000017
100
AcDbArc
 50
314.9999999999997
 51
0.0
  0
ARC
  5
22C
330
1F
100
AcDbEntity
  8
VISIBLE
  6
Continuous
 62
     7
100
AcDbCircle
 10
-2.003052215861225
 20
7.817855219259151
 30
0.0
 40
0.1875
100
AcDbArc
 50
90.0
 51
180.0
  0
ARC
  5
22D
330
1F
100
AcDbEntity
  8
VISIBLE
  6
Continuous
 62
     7
100
AcDbCircle
 10
-0.3780522158612296
 20
4.896440176314194
 30
0.0
 40
0.1875000000000052
100
AcDbArc
 50
0.0
 51
44.99999999999998
  0
LINE
  5
22E
330
1F
100
AcDbEntity
  8
VISIBLE
  6
Continuous
 62
     7
100
AcDbLine
 10
-0.25444519646298
 20
1.196392149835157
 30
0.0
 11
-0.8321102394079352
 21
1.774057192780111
 31
0.0
  0
CIRCLE
  5
22F
330
1F
100
AcDbEntity
  8
VISIBLE
  6
Continuous
 62
     7
100
AcDbCircle
 10
-1.543277717935457
 20
2.547724671307635
 30
0.0
 40
0.1250000000000029
  0
CIRCLE
  5
230
330
1F
100
AcDbEntity
  8
VISIBLE
  6
Continuous
 62
     7
100
AcDbCircle
 10
-0.4495277179354572
 20
4.037724671307631
 30
0.0
 40
0.0769999999999982
  0
LINE
  5
231
330
1F
100
AcDbEntity
  8
VISIBLE
  6
Continuous
 62
     7
100
AcDbLine
 10
-2.199527717935457
 20
3.985224671307632
 30
0.0
 11
-2.199527717935457
 21
0.6727246713076351
 31
0.0
  0
ARC
  5
232
330
1F
100
AcDbEntity
  8
VISIBLE
  6
Continuous
 62
     7
100
AcDbCircle
 10
-2.012027717935459
 20
0.6727246713076351
 30
0.0
 40
0.1874999999999973
100
AcDbArc
 50
180.0
 51
270.0
  0
LINE
  5
233
330
1F
100
AcDbEntity
  8
VISIBLE
  6
Continuous
 62
     7
100
AcDbLine
 10
-0.387027717935457
 20
4.172724671307632
 30
0.0
 11
-2.012027717935459
 21
4.172724671307632
 31
0.0
  0
LINE
  5
234
330
1F
100
AcDbEntity
  8
VISIBLE
  6
Continuous
 62
     7
100
AcDbLine
 10
-2.012027717935459
 20
0.4852246713076334
 30
0.0
 11
-0.387027717935457
 21
0.4852246713076334
 31
0.0
  0
ARC
  5
235
330
1F
100
AcDbEntity
  8
VISIBLE
  6
Continuous
 62
     7
100
AcDbCircle
 10
-0.6995277179354537
 20
2.751309628362674
 30
0.0
 40
0.1875000000000047
100
AcDbArc
 50
134.9999999999992
 51
180.0
  0
ARC
  5
236
330
1F
100
AcDbEntity
  8
VISIBLE
  6
Continuous
 62
     7
100
AcDbCircle
 10
-0.6995277179354548
 20
1.906639714252589
 30
0.0
 40
0.1875000000000029
100
AcDbArc
 50
180.0
 51
225.0000000000002
  0
LINE
  5
237
330
1F
100
AcDbEntity
  8
VISIBLE
  6
Continuous
 62
     7
100
AcDbLine
 10
-0.1995277179354563
 20
3.594139714252587
 30
0.0
 11
-0.1995277179354575
 21
3.985224671307632
 31
0.0
  0
CIRCLE
  5
238
330
1F
100
AcDbEntity
  8
VISIBLE
  6
Continuous
 62
     7
100
AcDbCircle
 10
-1.949527717935456
 20
4.037724671307631
 30
0.0
 40
0.0769999999999982
  0
ARC
  5
239
330
1F
100
AcDbEntity
  8
VISIBLE
  6
Continuous
 62
     7
100
AcDbCircle
 10
-0.387027717935457
 20
0.6727246713076351
 30
0.0
 40
0.1875000000000018
100
AcDbArc
 50
270.0
 51
0.0
  0
CIRCLE
  5
23A
330
1F
100
AcDbEntity
  8
VISIBLE
  6
Continuous
 62
     7
100
AcDbCircle
 10
-1.199527717935458
 20
1.891474671307633
 30
0.0
 40
0.1249999999999982
  0
LINE
  5
23B
330
1F
100
AcDbEntity
  8
VISIBLE
  6
Continuous
 62
     7
100
AcDbLine
 10
-0.8870277179354576
 20
1.906639714252589
 30
0.0
 11
-0.8870277179354576
 21
2.751309628362679
 31
0.0
  0
CIRCLE
  5
23C
330
1F
100
AcDbEntity
  8
VISIBLE
  6
Continuous
 62
     7
100
AcDbCircle
 10
-1.199527717935458
 20
2.328974671307636
 30
0.0
 40
0.1250000000000029
  0
LINE
  5
23D
330
1F
100
AcDbEntity
  8
VISIBLE
  6
Continuous
 62
     7
100
AcDbLine
 10
-0.1995277179354563
 20
0.6727246713076351
 30
0.0
 11
-0.1995277179354563
 21
1.063809628362676
 31
0.0
  0
LINE
  5
23E
330
1F
100
AcDbEntity
  8
VISIBLE
  6
Continuous
 62
     7
100
AcDbLine
 10
-0.8321102394079328
 20
2.883892149835157
 30
0.0
 11
-0.25444519646298
 21
3.461557192780109
 31
0.0
  0
CIRCLE
  5
23F
330
1F
100
AcDbEntity
  8
VISIBLE
  6
Continuous
 62
     7
100
AcDbCircle
 10
-1.949527717935456
 20
0.6202246713076323
 30
0.0
 40
0.0769999999999982
  0
CIRCLE
  5
240
330
1F
100
AcDbEntity
  8
VISIBLE
  6
Continuous
 62
     7
100
AcDbCircle
 10
-1.199527717935458
 20
2.766474671307634
 30
0.0
 40
0.1250000000000029
  0
CIRCLE
  5
241
330
1F
100
AcDbEntity
  8
VISIBLE
  6
Continuous
 62
     7
100
AcDbCircle
 10
-1.543277717935457
 20
2.110224671307632
 30
0.0
 40
0.1249999999999982
  0
ARC
  5
242
330
1F
100
AcDbEntity
  8
VISIBLE
  6
Continuous
 62
     7
100
AcDbCircle
 10
-0.387027717935457
 20
3.985224671307632
 30
0.0
 40
0.1874999999999995
100
AcDbArc
 50
0.0
 51
90.0
  0
CIRCLE
  5
243
330
1F
100
AcDbEntity
  8
VISIBLE
  6
Continuous
 62
     7
100
AcDbCircle
 10
-0.4495277179354572
 20
0.6202246713076323
 30
0.0
 40
0.0770000000000004
  0
CIRCLE
  5
244
330
1F
100
AcDbEntity
  8
VISIBLE
  6
Continuous
 62
     7
100
AcDbCircle
 10
-1.887027717935457
 20
2.328974671307636
 30
0.0
 40
0.1250000000000029
  0
ARC
  5
245
330
1F
100
AcDbEntity
  8
VISIBLE
  6
Continuous
 62
     7
100
AcDbCircle
 10
-0.3870277179354604
 20
3.594139714252587
 30
0.0
 40
0.1875000000000023
100
AcDbArc
 50
315.0000000000005
 51
0.0
  0
ARC
  5
246
330
1F
100
AcDbEntity
  8
VISIBLE
  6
Continuous
 62
     7
100
AcDbCircle
 10
-2.012027717935459
 20
3.985224671307632
 30
0.0
 40
0.1875
100
AcDbArc
 50
90.0
 51
180.0
  0
ARC
  5
247
330
1F
100
AcDbEntity
  8
VISIBLE
  6
Continuous
 62
     7
100
AcDbCircle
 10
-0.3870277179354626
 20
1.063809628362676
 30
0.0
 40
0.1875000000000062
100
AcDbArc
 50
0.0
 51
45.00000000000004
  0
LINE
  5
248
330
1F
100
AcDbEntity
  8
VISIBLE
  6
Continuous
 62
     7
100
AcDbLine
 10
0.304191356584141
 20
-0.128892625767326
 30
0.0
 11
0.147941356584141
 21
-0.128892625767326
 31
0.0
  0
ARC
  5
249
330
1F
100
AcDbEntity
  8
VISIBLE
  6
Continuous
 62
     7
100
AcDbCircle
 10
-0.4458086434158595
 20
0.0898573742326753
 30
0.0
 40
0.7812500000000008
100
AcDbArc
 50
196.260204708312
 51
343.7397952916879
  0
LINE
  5
24A
330
1F
100
AcDbEntity
  8
VISIBLE
  6
Continuous
 62
     7
100
AcDbLine
 10
-1.03955864341586
 20
0.3086073742326744
 30
0.0
 11
-1.03955864341586
 21
-0.128892625767326
 31
0.0
  0
LINE
  5
24B
330
1F
100
AcDbEntity
  8
VISIBLE
  6
Continuous
 62
     7
100
AcDbLine
 10
0.4735245048497748
 20
0.3086073742326744
 30
0.0
 11
0.147941356584141
 21
0.3086073742326744
 31
0.0
  0
LINE
  5
24C
330
1F
100
AcDbEntity
  8
VISIBLE
  6
Continuous
 62
     7
100
AcDbLine
 10
0.147941356584141
 20
-0.128892625767326
 30
0.0
 11
0.147941356584141
 21
0.3086073742326744
 31
0.0
  0
LINE
  5
24D
330
1F
100
AcDbEntity
  8
VISIBLE
  6
Continuous
 62
     7
100
AcDbLine
 10
-1.03955864341586
 20
-0.128892625767326
 30
0.0
 11
-1.19580864341586
 21
-0.128892625767326
 31
0.0
  0
LINE
  5
24E
330
1F
100
AcDbEntity
  8
VISIBLE
  6
Continuous
 62
     7
100
AcDbLine
 10
-1.365141791681494
 20
0.3086073742326744
 30
0.0
 11
-1.039558643415861
 21
0.3086073742326744
 31
0.0
  0
ARC
  5
24F
330
1F
100
AcDbEntity
  8
VISIBLE
  6
Continuous
 62
     7
100
AcDbCircle
 10
-0.4458086434158527
 20
0.0898573742326776
 30
0.0
 40
0.9450000000000061
100
AcDbArc
 50
166.615691547733
 51
13.38430845226698
  0
LINE
  5
250
330
1F
100
AcDbEntity
  8
VISIBLE
  6
Continuous
 62
     7
100
AcDbLine
 10
0.1783765432556016
 20
-1.185602608571686
 30
0.0
 11
-0.2591234567443988
 21
-1.185602608571686
 31
0.0
  0
ARC
  5
251
330
1F
100
AcDbEntity
  8
VISIBLE
  6
Continuous
 62
     7
100
AcDbCircle
 10
0.1496265432555972
 20
-2.714352608571688
 30
0.0
 40
0.06
100
AcDbArc
 50
0.0
 51
89.99999999976278
  0
LINE
  5
252
330
1F
100
AcDbEntity
  8
VISIBLE
  6
Continuous
 62
     7
100
AcDbLine
 10
0.1496265432553942
 20
-3.466852608571417
 30
0.0
 11
-0.2303734567446064
 21
-3.466852608571417
 31
0.0
  0
LINE
  5
253
330
1F
100
AcDbEntity
  8
VISIBLE
  6
Continuous
 62
     7
100
AcDbLine
 10
0.3796265432556011
 20
-0.9668526085716864
 30
0.0
 11
0.1783765432556022
 21
-0.9668526085716864
 31
0.0
  0
ARC
  5
254
330
1F
100
AcDbEntity
  8
VISIBLE
  6
Continuous
 62
     7
100
AcDbCircle
 10
-0.2303734567445986
 20
-2.714352608571686
 30
0.0
 40
0.0599999999999978
100
AcDbArc
 50
89.99999999957527
 51
179.9999999997498
  0
LINE
  5
255
330
1F
100
AcDbEntity
  8
VISIBLE
  6
Continuous
 62
     7
100
AcDbLine
 10
0.3796265432556011
 20
-0.9668526085716864
 30
0.0
 11
0.3796265432555941
 21
-3.716852608571689
 31
0.0
  0
LINE
  5
256
330
1F
100
AcDbEntity
  8
VISIBLE
  6
Continuous
 62
     7
100
AcDbLine
 10
-0.4603734567444042
 20
-3.716852608571684
 30
0.0
 11
-0.4603734567443983
 21
-0.9668526085716853
 31
0.0
  0
LINE
  5
257
330
1F
100
AcDbEntity
  8
VISIBLE
  6
Continuous
 62
     7
100
AcDbLine
 10
-0.2591234567443988
 20
-1.185602608571686
 30
0.0
 11
-0.2591234567443982
 21
-0.9668526085716864
 31
0.0
  0
ARC
  5
258
330
1F
100
AcDbEntity
  8
VISIBLE
  6
Continuous
 62
     7
100
AcDbCircle
 10
-0.2303734567446009
 20
-3.406852608571421
 30
0.0
 40
0.0599999999999956
100
AcDbArc
 50
179.9999999998122
 51
269.9999999999947
  0
LINE
  5
259
330
1F
100
AcDbEntity
  8
VISIBLE
  6
Continuous
 62
     7
100
AcDbLine
 10
-0.2903734567445964
 20
-3.406852608571224
 30
0.0
 11
-0.2903734567445964
 21
-2.714352608571424
 31
0.0
  0
LINE
  5
25A
330
1F
100
AcDbEntity
  8
VISIBLE
  6
Continuous
 62
     7
100
AcDbLine
 10
-0.4603734567444044
 20
-3.841852608571685
 30
0.0
 11
0.3796265432555938
 21
-3.841852608571687
 31
0.0
  0
LINE
  5
25B
330
1F
100
AcDbEntity
  8
VISIBLE
  6
Continuous
 62
     7
100
AcDbLine
 10
-0.2591234567443982
 20
-0.9668526085716864
 30
0.0
 11
-0.4603734567443983
 21
-0.9668526085716853
 31
0.0
  0
LINE
  5
25C
330
1F
100
AcDbEntity
  8
VISIBLE
  6
Continuous
 62
     7
100
AcDbLine
 10
-0.2303734567441538
 20
-2.654352608571688
 30
0.0
 11
0.1496265432558457
 21
-2.654352608571688
 31
0.0
  0
LINE
  5
25D
330
1F
100
AcDbEntity
  8
VISIBLE
  6
Continuous
 62
     7
100
AcDbLine
 10
0.2096265432555973
 20
-2.714352608571688
 30
0.0
 11
0.2096265432555973
 21
-3.406852608571649
 31
0.0
  0
LINE
  5
25E
330
1F
100
AcDbEntity
  8
VISIBLE
  6
Continuous
 62
     7
100
AcDbLine
 10
0.3796265432555941
 20
-3.716852608571687
 30
0.0
 11
0.3796265432555938
 21
-3.841852608571687
 31
0.0
  0
LINE
  5
25F
330
1F
100
AcDbEntity
  8
VISIBLE
  6
Continuous
 62
     7
100
AcDbLine
 10
0.1783765432556022
 20
-0.9668526085716864
 30
0.0
 11
0.1783765432556016
 21
-1.185602608571686
 31
0.0
  0
ARC
  5
260
330
1F
100
AcDbEntity
  8
VISIBLE
  6
Continuous
 62
     7
100
AcDbCircle
 10
0.1496265432555972
 20
-3.406852608571417
 30
0.0
 40
0.0600000000000001
100
AcDbArc
 50
269.9999999998061
 51
359.9999999997782
  0
LINE
  5
261
330
1F
100
AcDbEntity
  8
VISIBLE
  6
Continuous
 62
     7
100
AcDbLine
 10
-0.4603734567444054
 20
-3.841852608571683
 30
0.0
 11
-0.4603734567444049
 21
-3.716852608571685
 31
0.0
  0
LINE
  5
262
330
1F
100
AcDbEntity
  8
VISIBLE
  6
Continuous
 62
     7
100
AcDbLine
 10
7.177164993886872
 20
1.632449533057025
 30
0.0
 11
7.177164993886872
 21
1.168001374936557
 31
0.0
  0
LINE
  5
263
330
1F
100
AcDbEntity
  8
VISIBLE
  6
Continuous
 62
     7
100
AcDbLine
 10
6.802164993886967
 20
2.007449533057104
 30
0.0
 11
6.927164993886953
 21
2.03869953305708
 31
0.0
  0
LINE
  5
264
330
1F
100
AcDbEntity
  8
VISIBLE
  6
Continuous
 62
     7
100
AcDbLine
 10
6.044352493886992
 20
2.319949533057064
 30
0.0
 11
6.395914993886961
 21
2.038699533057157
 31
0.0
  0
LINE
  5
265
330
1F
100
AcDbEntity
  8
VISIBLE
  6
Continuous
 62
     7
100
AcDbLine
 10
6.145914993886869
 20
0.9449495330570642
 30
0.0
 11
6.145914993886871
 21
1.50744953305719
 31
0.0
  0
LINE
  5
266
330
1F
100
AcDbEntity
  8
VISIBLE
  6
Continuous
 62
     7
100
AcDbLine
 10
6.452611556521341
 20
0.9449495330570642
 30
0.0
 11
6.145914993886871
 21
0.9449495330570642
 31
0.0
  0
CIRCLE
  5
267
330
1F
100
AcDbEntity
  8
VISIBLE
  6
Continuous
 62
     7
100
AcDbCircle
 10
6.833414993886848
 20
1.726199533057182
 30
0.0
 40
0.1250000000000018
  0
LINE
  5
268
330
1F
100
AcDbEntity
  8
VISIBLE
  6
Continuous
 62
     7
100
AcDbLine
 10
6.520914993886994
 20
2.007449533057104
 30
0.0
 11
6.80216499388697
 21
2.007449533057104
 31
0.0
  0
LINE
  5
269
330
1F
100
AcDbEntity
  8
VISIBLE
  6
Continuous
 62
     7
100
AcDbLine
 10
6.145914993886871
 20
1.50744953305719
 30
0.0
 11
5.552164993886858
 21
1.50744953305719
 31
0.0
  0
LINE
  5
26A
330
1F
100
AcDbEntity
  8
VISIBLE
  6
Continuous
 62
     7
100
AcDbLine
 10
6.395914993886964
 20
2.038699533057143
 30
0.0
 11
6.52091499388699
 21
2.00744953305712
 31
0.0
  0
CIRCLE
  5
26B
330
1F
100
AcDbEntity
  8
VISIBLE
  6
Continuous
 62
     7
100
AcDbCircle
 10
6.302164993886849
 20
1.101199533057184
 30
0.0
 40
0.0530000000000017
  0
LINE
  5
26C
330
1F
100
AcDbEntity
  8
VISIBLE
  6
Continuous
 62
     7
100
AcDbLine
 10
7.052164993886968
 20
2.163699533057064
 30
0.0
 11
7.114664993886963
 21
2.163699533057064
 31
0.0
  0
ARC
  5
26D
330
1F
100
AcDbEntity
  8
VISIBLE
  6
Continuous
 62
     7
100
AcDbCircle
 10
6.452611556521341
 20
1.194949533055039
 30
0.0
 40
0.2499999999979746
100
AcDbArc
 50
270.0
 51
288.0396844036038
  0
LINE
  5
26E
330
1F
100
AcDbEntity
  8
VISIBLE
  6
Continuous
 62
     7
100
AcDbLine
 10
6.927164993886953
 20
2.038699533057064
 30
0.0
 11
7.052164993886964
 21
2.163699533057047
 31
0.0
  0
LINE
  5
26F
330
1F
100
AcDbEntity
  8
VISIBLE
  6
Continuous
 62
     7
100
AcDbLine
 10
7.17716499388685
 20
1.168001374936592
 30
0.0
 11
6.530030467595135
 21
0.957238969118301
 31
0.0
  0
LINE
  5
270
330
1F
100
AcDbEntity
  8
VISIBLE
  6
Continuous
 62
     7
100
AcDbLine
 10
5.083414993886901
 20
2.319949533057104
 30
0.0
 11
6.044352493886992
 21
2.319949533057104
 31
0.0
  0
LINE
  5
271
330
1F
100
AcDbEntity
  8
VISIBLE
  6
Continuous
 62
     7
100
AcDbLine
 10
7.114664993886963
 20
2.163699533057064
 30
0.0
 11
7.177164993886875
 21
1.632449533057049
 31
0.0
  0
CIRCLE
  5
272
330
1F
100
AcDbEntity
  8
VISIBLE
  6
Continuous
 62
     7
100
AcDbCircle
 10
6.520914993886848
 20
1.726199533057182
 30
0.0
 40
0.1250000000000018
  0
CIRCLE
  5
273
330
1F
100
AcDbEntity
  8
CONTINUOUS
  6
Continuous
 62
     7
100
AcDbCircle
 10
5.92716499388685
 20
1.851199533057184
 30
0.0
 40
0.0759999999999996
  0
CIRCLE
  5
274
330
1F
100
AcDbEntity
  8
VISIBLE
  6
Continuous
 62
     7
100
AcDbCircle
 10
5.208414993886849
 20
2.163699533057184
 30
0.0
 40
0.0530000000000017
  0
LINE
  5
275
330
1F
100
AcDbEntity
  8
VISIBLE
  6
Continuous
 62
     7
100
AcDbLine
 10
5.083414993886889
 20
2.069949533057301
 30
0.0
 11
5.083414993886889
 21
2.319949533057112
 31
0.0
  0
LINE
  5
276
330
1F
100
AcDbEntity
  8
VISIBLE
  6
Continuous
 62
     7
100
AcDbLine
 10
5.55216499388685
 20
1.507449533057184
 30
0.0
 11
5.08341499388689
 21
2.069949533057283
 31
0.0
  0
ENDSEC
  0
SECTION
  2
OBJECTS
  0
DICTIONARY
  5
C
330
0
100
AcDbDictionary
281
     1
  3
ACAD_GROUP
350
D
  3
ACAD_LAYOUT
350
1A
  3
ACAD_MLEADERSTYLE
350
27A
  3
ACAD_MLINESTYLE
350
17
  3
ACAD_PLOTSETTINGS
350
19
  3
ACAD_PLOTSTYLENAME
350
E
  3
ACAD_SCALELIST
350
3B
  3
ACAD_TABLESTYLE
350
279
  3
ACAD_VISUALSTYLE
350
2A
  3
AcDbVariableDictionary
350
277
  0
DICTIONARY
  5
D
102
{ACAD_REACTORS
330
C
102
}
330
C
100
AcDbDictionary
281
     1
  0
DICTIONARY
  5
1A
102
{ACAD_REACTORS
330
C
102
}
330
C
100
AcDbDictionary
281
     1
  3
Layout1
350
1E
  3
Layout2
350
26
  3
Model
350
22
  0
DICTIONARY
  5
27A
102
{ACAD_REACTORS
330
C
102
}
330
C
100
AcDbDictionary
281
     1
  0
DICTIONARY
  5
17
102
{ACAD_REACTORS
330
C
102
}
330
C
100
AcDbDictionary
281
     1
  3
Standard
350
18
  0
DICTIONARY
  5
19
102
{ACAD_REACTORS
330
C
102
}
330
C
100
AcDbDictionary
281
     1
  0
ACDBDICTIONARYWDFLT
  5
E
102
{ACAD_REACTORS
330
C
102
}
330
C
100
AcDbDictionary
281
     1
  3
Normal
350
F
100
AcDbDictionaryWithDefault
340
F
  0
DICTIONARY
  5
3B
102
{ACAD_REACTORS
330
C
102
}
330
C
100
AcDbDictionary
281
     1
  3
A0
350
3C
  3
A1
350
3D
  3
A2
350
3E
  3
A3
350
3F
  3
A4
350
40
  3
A5
350
41
  3
A6
350
42
  3
A7
350
43
  3
A8
350
44
  3
A9
350
45
  3
B0
350
46
  3
B1
350
47
  3
B2
350
48
  3
B3
350
49
  3
B4
350
4A
  3
B5
350
4B
  3
B6
350
4C
  3
B7
350
4D
  3
B8
350
4E
  3
B9
350
4F
  3
C0
350
50
  3
C1
350
51
  3
C2
350
52
  3
C3
350
53
  3
C4
350
54
  3
C5
350
55
  3
C6
350
56
  3
C7
350
57
  3
C8
350
58
  3
C9
350
59
  3
D0
350
5A
  3
D1
350
5B
  3
D2
350
5C
  0
DICTIONARY
  5
279
102
{ACAD_REACTORS
330
C
102
}
330
C
100
AcDbDictionary
281
     1
  0
DICTIONARY
  5
2A
102
{ACAD_REACTORS
330
C
102
}
330
C
100
AcDbDictionary
281
     1
  3
2dWireframe
350
2F
  3
3D Hidden
350
31
  3
3dWireframe
350
30
  3
Basic
350
32
  3
Brighten
350
36
  3
ColorChange
350
3A
  3
Conceptual
350
34
  3
Dim
350
35
  3
Facepattern
350
39
  3
Flat
350
2B
  3
FlatWithEdges
350
2C
  3
Gouraud
350
2D
  3
GouraudWithEdges
350
2E
  3
Linepattern
350
38
  3
Realistic
350
33
  3
Thicken
350
37
  0
DICTIONARY
  5
277
102
{ACAD_REACTORS
330
C
102
}
330
C
100
AcDbDictionary
281
     1
  3
CANNOSCALE
350
278
  0
LAYOUT
  5
1E
102
{ACAD_REACTORS
330
1A
102
}
330
1A
100
AcDbPlotSettings
  1

  2
none_device
  4

  6

 40
0.0
 41
0.0
 42
0.0
 43
0.0
 44
0.0
 45
0.0
 46
0.0
 47
0.0
 48
0.0
 49
0.0
140
0.0
141
0.0
142
1.0
143
1.0
 70
   688
 72
     0
 73
     0
 74
     5
  7

 75
    16
147
1.0
148
0.0
149
0.0
100
AcDbLayout
  1
Layout1
 70
     1
 71
     1
 10
0.0
 20
0.0
 11
12.0
 21
9.0
 12
0.0
 22
0.0
 32
0.0
 14
1.000000000000000E+20
 24
1.000000000000000E+20
 34
1.000000000000000E+20
 15
-1.000000000000000E+20
 25
-1.000000000000000E+20
 35
-1.000000000000000E+20
146
0.0
 13
0.0
 23
0.0
 33
0.0
 16
1.0
 26
0.0
 36
0.0
 17
0.0
 27
1.0
 37
0.0
 76
     0
330
1B
  0
LAYOUT
  5
26
102
{ACAD_REACTORS
330
1A
102
}
330
1A
100
AcDbPlotSettings
  1

  2
none_device
  4

  6

 40
0.0
 41
0.0
 42
0.0
 43
0.0
 44
0.0
 45
0.0
 46
0.0
 47
0.0
 48
0.0
 49
0.0
140
0.0
141
0.0
142
1.0
143
1.0
 70
   688
 72
     0
 73
     0
 74
     5
  7

 75
    16
147
1.0
148
0.0
149
0.0
100
AcDbLayout
  1
Layout2
 70
     1
 71
     2
 10
0.0
 20
0.0
 11
0.0
 21
0.0
 12
0.0
 22
0.0
 32
0.0
 14
0.0
 24
0.0
 34
0.0
 15
0.0
 25
0.0
 35
0.0
146
0.0
 13
0.0
 23
0.0
 33
0.0
 16
1.0
 26
0.0
 36
0.0
 17
0.0
 27
1.0
 37
0.0
 76
     0
330
23
  0
LAYOUT
  5
22
102
{ACAD_REACTORS
330
1A
102
}
330
1A
100
AcDbPlotSettings
  1

  2
none_device
  4

  6

 40
0.0
 41
0.0
 42
0.0
 43
0.0
 44
0.0
 45
0.0
 46
0.0
 47
0.0
 48
0.0
 49
0.0
140
0.0
141
0.0
142
1.0
143
1.0
 70
  1712
 72
     0
 73
     0
 74
     0
  7

 75
     0
147
1.0
148
0.0
149
0.0
100
AcDbLayout
  1
Model
 70
     1
 71
     0
 10
0.0
 20
0.0
 11
12.0
 21
9.0
 12
0.0
 22
0.0
 32
0.0
 14
1.000000000000000E+20
 24
1.000000000000000E+20
 34
1.000000000000000E+20
 15
-1.000000000000000E+20
 25
-1.000000000000000E+20
 35
-1.000000000000000E+20
146
0.0
 13
0.0
 23
0.0
 33
0.0
 16
1.0
 26
0.0
 36
0.0
 17
0.0
 27
1.0
 37
0.0
 76
     0
330
1F
331
29
  0
MLINESTYLE
  5
18
102
{ACAD_REACTORS
330
17
102
}
330
17
100
AcDbMlineStyle
  2
Standard
 70
     0
  3

 62
   256
 51
90.0
 52
90.0
 71
     2
 49
0.5
 62
   256
  6
BYLAYER
 49
-0.5
 62
   256
  6
BYLAYER
  0
ACDBPLACEHOLDER
  5
F
102
{ACAD_REACTORS
330
E
102
}
330
E
  0
SCALE
  5
3C
102
{ACAD_REACTORS
330
3B
102
}
330
3B
100
AcDbScale
 70
     0
300
1:1
140
1.0
141
1.0
290
     1
  0
SCALE
  5
3D
102
{ACAD_REACTORS
330
3B
102
}
330
3B
100
AcDbScale
 70
     0
300
1:2
140
1.0
141
2.0
290
     0
  0
SCALE
  5
3E
102
{ACAD_REACTORS
330
3B
102
}
330
3B
100
AcDbScale
 70
     0
300
1:4
140
1.0
141
4.0
290
     0
  0
SCALE
  5
3F
102
{ACAD_REACTORS
330
3B
102
}
330
3B
100
AcDbScale
 70
     0
300
1:5
140
1.0
141
5.0
290
     0
  0
SCALE
  5
40
102
{ACAD_REACTORS
330
3B
102
}
330
3B
100
AcDbScale
 70
     0
300
1:8
140
1.0
141
8.0
290
     0
  0
SCALE
  5
41
102
{ACAD_REACTORS
330
3B
102
}
330
3B
100
AcDbScale
 70
     0
300
1:10
140
1.0
141
10.0
290
     0
  0
SCALE
  5
42
102
{ACAD_REACTORS
330
3B
102
}
330
3B
100
AcDbScale
 70
     0
300
1:16
140
1.0
141
16.0
290
     0
  0
SCALE
  5
43
102
{ACAD_REACTORS
330
3B
102
}
330
3B
100
AcDbScale
 70
     0
300
1:20
140
1.0
141
20.0
290
     0
  0
SCALE
  5
44
102
{ACAD_REACTORS
330
3B
102
}
330
3B
100
AcDbScale
 70
     0
300
1:30
140
1.0
141
30.0
290
     0
  0
SCALE
  5
45
102
{ACAD_REACTORS
330
3B
102
}
330
3B
100
AcDbScale
 70
     0
300
1:40
140
1.0
141
40.0
290
     0
  0
SCALE
  5
46
102
{ACAD_REACTORS
330
3B
102
}
330
3B
100
AcDbScale
 70
     0
300
1:50
140
1.0
141
50.0
290
     0
  0
SCALE
  5
47
102
{ACAD_REACTORS
330
3B
102
}
330
3B
100
AcDbScale
 70
     0
300
1:100
140
1.0
141
100.0
290
     0
  0
SCALE
  5
48
102
{ACAD_REACTORS
330
3B
102
}
330
3B
100
AcDbScale
 70
     0
300
2:1
140
2.0
141
1.0
290
     0
  0
SCALE
  5
49
102
{ACAD_REACTORS
330
3B
102
}
330
3B
100
AcDbScale
 70
     0
300
4:1
140
4.0
141
1.0
290
     0
  0
SCALE
  5
4A
102
{ACAD_REACTORS
330
3B
102
}
330
3B
100
AcDbScale
 70
     0
300
8:1
140
8.0
141
1.0
290
     0
  0
SCALE
  5
4B
102
{ACAD_REACTORS
330
3B
102
}
330
3B
100
AcDbScale
 70
     0
300
10:1
140
10.0
141
1.0
290
     0
  0
SCALE
  5
4C
102
{ACAD_REACTORS
330
3B
102
}
330
3B
100
AcDbScale
 70
     0
300
100:1
140
100.0
141
1.0
290
     0
  0
SCALE
  5
4D
102
{ACAD_REACTORS
330
3B
102
}
330
3B
100
AcDbScale
 70
     0
300
1/128" = 1'-0"
140
0.0078125
141
12.0
290
     0
  0
SCALE
  5
4E
102
{ACAD_REACTORS
330
3B
102
}
330
3B
100
AcDbScale
 70
     0
300
1/64" = 1'-0"
140
0.015625
141
12.0
290
     0
  0
SCALE
  5
4F
102
{ACAD_REACTORS
330
3B
102
}
330
3B
100
AcDbScale
 70
     0
300
1/32" = 1'-0"
140
0.03125
141
12.0
290
     0
  0
SCALE
  5
50
102
{ACAD_REACTORS
330
3B
102
}
330
3B
100
AcDbScale
 70
     0
300
1/16" = 1'-0"
140
0.0625
141
12.0
290
     0
  0
SCALE
  5
51
102
{ACAD_REACTORS
330
3B
102
}
330
3B
100
AcDbScale
 70
     0
300
3/32" = 1'-0"
140
0.09375
141
12.0
290
     0
  0
SCALE
  5
52
102
{ACAD_REACTORS
330
3B
102
}
330
3B
100
AcDbScale
 70
     0
300
1/8" = 1'-0"
140
0.125
141
12.0
290
     0
  0
SCALE
  5
53
102
{ACAD_REACTORS
330
3B
102
}
330
3B
100
AcDbScale
 70
     0
300
3/16" = 1'-0"
140
0.1875
141
12.0
290
     0
  0
SCALE
  5
54
102
{ACAD_REACTORS
330
3B
102
}
330
3B
100
AcDbScale
 70
     0
300
1/4" = 1'-0"
140
0.25
141
12.0
290
     0
  0
SCALE
  5
55
102
{ACAD_REACTORS
330
3B
102
}
330
3B
100
AcDbScale
 70
     0
300
3/8" = 1'-0"
140
0.375
141
12.0
290
     0
  0
SCALE
  5
56
102
{ACAD_REACTORS
330
3B
102
}
330
3B
100
AcDbScale
 70
     0
300
1/2" = 1'-0"
140
0.5
141
12.0
290
     0
  0
SCALE
  5
57
102
{ACAD_REACTORS
330
3B
102
}
330
3B
100
AcDbScale
 70
     0
300
3/4" = 1'-0"
140
0.75
141
12.0
290
     0
  0
SCALE
  5
58
102
{ACAD_REACTORS
330
3B
102
}
330
3B
100
AcDbScale
 70
     0
300
1" = 1'-0"
140
1.0
141
12.0
290
     0
  0
SCALE
  5
59
102
{ACAD_REACTORS
330
3B
102
}
330
3B
100
AcDbScale
 70
     0
300
1-1/2" = 1'-0"
140
1.5
141
12.0
290
     0
  0
SCALE
  5
5A
102
{ACAD_REACTORS
330
3B
102
}
330
3B
100
AcDbScale
 70
     0
300
3" = 1'-0"
140
3.0
141
12.0
290
     0
  0
SCALE
  5
5B
102
{ACAD_REACTORS
330
3B
102
}
330
3B
100
AcDbScale
 70
     0
300
6" = 1'-0"
140
6.0
141
12.0
290
     0
  0
SCALE
  5
5C
102
{ACAD_REACTORS
330
3B
102
}
330
3B
100
AcDbScale
 70
     0
300
1'-0" = 1'-0"
140
12.0
141
12.0
290
     0
  0
VISUALSTYLE
  5
2F
102
{ACAD_REACTORS
330
2A
102
}
330
2A
100
AcDbVisualStyle
  2
2dWireframe
 70
     4
 71
     0
 72
     2
 73
     0
 90
        0
 40
-0.6
 41
-30.0
 62
     5
 63
     7
 74
     1
 91
        4
 64
     7
 65
   257
 75
     1
175
     1
 42
1.0
 92
        0
 66
   257
 43
1.0
 76
     1
 77
     6
 78
     2
 67
     7
 79
     5
170
     0
171
     0
290
     0
174
     0
 93
        1
 44
0.0
173
     0
291
     0
 45
0.0
1001
ACAD
1000
AcDbSavedByObjectVersion
1070
     0
  0
VISUALSTYLE
  5
31
102
{ACAD_REACTORS
330
2A
102
}
330
2A
100
AcDbVisualStyle
  2
3D Hidden
 70
     6
 71
     1
 72
     2
 73
     2
 90
        0
 40
-0.6
 41
-30.0
 62
     5
 63
     7
 74
     2
 91
        2
 64
     7
 65
   257
 75
     2
175
     1
 42
40.0
 92
        0
 66
   257
 43
1.0
 76
     1
 77
     6
 78
     2
 67
     7
 79
     3
170
     0
171
     0
290
     0
174
     0
 93
        1
 44
0.0
173
     0
291
     0
 45
0.0
1001
ACAD
1000
AcDbSavedByObjectVersion
1070
     0
  0
VISUALSTYLE
  5
30
102
{ACAD_REACTORS
330
2A
102
}
330
2A
100
AcDbVisualStyle
  2
3dWireframe
 70
     5
 71
     0
 72
     2
 73
     0
 90
        0
 40
-0.6
 41
-30.0
 62
     5
 63
     7
 74
     1
 91
        4
 64
     7
 65
   257
 75
     1
175
     1
 42
1.0
 92
        0
 66
   257
 43
1.0
 76
     1
 77
     6
 78
     2
 67
     7
 79
     5
170
     0
171
     0
290
     0
174
     0
 93
        1
 44
0.0
173
     0
291
     0
 45
0.0
1001
ACAD
1000
AcDbSavedByObjectVersion
1070
     0
  0
VISUALSTYLE
  5
32
102
{ACAD_REACTORS
330
2A
102
}
330
2A
100
AcDbVisualStyle
  2
Basic
 70
     7
 71
     1
 72
     0
 73
     1
 90
        0
 40
-0.6
 41
-30.0
 62
     5
 63
     7
 74
     0
 91
        4
 64
     7
 65
   257
 75
     1
175
     1
 42
1.0
 92
        8
 66
     7
 43
1.0
 76
     1
 77
     6
 78
     2
 67
     7
 79
     5
170
     0
171
     0
290
     0
174
     0
 93
        1
 44
0.0
173
     0
291
     1
 45
0.0
1001
ACAD
1000
AcDbSavedByObjectVersion
1070
     0
  0
VISUALSTYLE
  5
36
102
{ACAD_REACTORS
330
2A
102
}
330
2A
100
AcDbVisualStyle
  2
Brighten
 70
    12
 71
     2
 72
     2
 73
     0
 90
        0
 40
-0.6
 41
-30.0
 62
     5
 63
     7
 74
     1
 91
        4
 64
     7
 65
   257
 75
     1
175
     1
 42
1.0
 92
        8
 66
     7
 43
1.0
 76
     1
 77
     6
 78
     2
 67
     7
 79
     5
170
     0
171
     0
290
     0
174
     0
 93
        1
 44
50.0
173
     0
291
     1
 45
0.0
1001
ACAD
1000
AcDbSavedByObjectVersion
1070
     0
  0
VISUALSTYLE
  5
3A
102
{ACAD_REACTORS
330
2A
102
}
330
2A
100
AcDbVisualStyle
  2
ColorChange
 70
    16
 71
     2
 72
     2
 73
     3
 90
        0
 40
-0.6
 41
-30.0
 62
     5
 63
     8
 74
     1
 91
        4
 64
     7
 65
   257
 75
     1
175
     1
 42
1.0
 92
        8
 66
     8
 43
1.0
 76
     1
 77
     6
 78
     2
 67
     7
 79
     5
170
     0
171
     0
290
     0
174
     0
 93
        1
 44
0.0
173
     0
291
     1
 45
0.0
1001
ACAD
1000
AcDbSavedByObjectVersion
1070
     0
  0
VISUALSTYLE
  5
34
102
{ACAD_REACTORS
330
2A
102
}
330
2A
100
AcDbVisualStyle
  2
Conceptual
 70
     9
 71
     3
 72
     2
 73
     0
 90
        0
 40
-0.6
 41
-30.0
 62
     5
 63
     7
 74
     2
 91
        2
 64
     7
 65
   257
 75
     1
175
     1
 42
40.0
 92
        8
 66
     7
 43
1.0
 76
     1
 77
     6
 78
     2
 67
     7
 79
     3
170
     0
171
     0
290
     0
174
     0
 93
        1
 44
0.0
173
     0
291
     0
 45
0.0
1001
ACAD
1000
AcDbSavedByObjectVersion
1070
     0
  0
VISUALSTYLE
  5
35
102
{ACAD_REACTORS
330
2A
102
}
330
2A
100
AcDbVisualStyle
  2
Dim
 70
    11
 71
     2
 72
     2
 73
     0
 90
        0
 40
-0.6
 41
-30.0
 62
     5
 63
     7
 74
     1
 91
        4
 64
     7
 65
   257
 75
     1
175
     1
 42
1.0
 92
        8
 66
     7
 43
1.0
 76
     1
 77
     6
 78
     2
 67
     7
 79
     5
170
     0
171
     0
290
     0
174
     0
 93
        1
 44
-50.0
173
     0
291
     1
 45
0.0
1001
ACAD
1000
AcDbSavedByObjectVersion
1070
     0
  0
VISUALSTYLE
  5
39
102
{ACAD_REACTORS
330
2A
102
}
330
2A
100
AcDbVisualStyle
  2
Facepattern
 70
    15
 71
     2
 72
     2
 73
     0
 90
        0
 40
-0.6
 41
-30.0
 62
     5
 63
     7
 74
     1
 91
        4
 64
     7
 65
   257
 75
     1
175
     1
 42
1.0
 92
        8
 66
     7
 43
1.0
 76
     1
 77
     6
 78
     2
 67
     7
 79
     5
170
     0
171
     0
290
     0
174
     0
 93
        1
 44
0.0
173
     0
291
     1
 45
0.0
1001
ACAD
1000
AcDbSavedByObjectVersion
1070
     0
  0
VISUALSTYLE
  5
2B
102
{ACAD_REACTORS
330
2A
102
}
330
2A
100
AcDbVisualStyle
  2
Flat
 70
     0
 71
     2
 72
     1
 73
     1
 90
        2
 40
-0.6
 41
30.0
 62
     5
 63
     7
 74
     0
 91
        4
 64
     7
 65
   257
 75
     1
175
     1
 42
1.0
 92
        8
 66
     7
 43
1.0
 76
     1
 77
     6
 78
     2
 67
     7
 79
     5
170
     0
171
     0
290
     0
174
     0
 93
       13
 44
0.0
173
     0
291
     1
 45
0.0
1001
ACAD
1000
AcDbSavedByObjectVersion
1070
     0
  0
VISUALSTYLE
  5
2C
102
{ACAD_REACTORS
330
2A
102
}
330
2A
100
AcDbVisualStyle
  2
FlatWithEdges
 70
     1
 71
     2
 72
     1
 73
     1
 90
        2
 40
-0.6
 41
30.0
 62
     5
 63
     7
 74
     1
 91
        4
 64
     7
 65
   257
 75
     1
175
     1
 42
1.0
 92
        0
 66
   257
 43
1.0
 76
     1
 77
     6
 78
     2
 67
     7
 79
     5
170
     0
171
     0
290
     0
174
     0
 93
       13
 44
0.0
173
     0
291
     1
 45
0.0
1001
ACAD
1000
AcDbSavedByObjectVersion
1070
     0
  0
VISUALSTYLE
  5
2D
102
{ACAD_REACTORS
330
2A
102
}
330
2A
100
AcDbVisualStyle
  2
Gouraud
 70
     2
 71
     2
 72
     2
 73
     1
 90
        2
 40
-0.6
 41
30.0
 62
     5
 63
     7
 74
     0
 91
        4
 64
     7
 65
   257
 75
     1
175
     1
 42
1.0
 92
        0
 66
     7
 43
1.0
 76
     1
 77
     6
 78
     2
 67
     7
 79
     5
170
     0
171
     0
290
     0
174
     0
 93
       13
 44
0.0
173
     0
291
     1
 45
0.0
1001
ACAD
1000
AcDbSavedByObjectVersion
1070
     0
  0
VISUALSTYLE
  5
2E
102
{ACAD_REACTORS
330
2A
102
}
330
2A
100
AcDbVisualStyle
  2
GouraudWithEdges
 70
     3
 71
     2
 72
     2
 73
     1
 90
        2
 40
-0.6
 41
30.0
 62
     5
 63
     7
 74
     1
 91
        4
 64
     7
 65
   257
 75
     1
175
     1
 42
1.0
 92
        0
 66
   257
 43
1.0
 76
     1
 77
     6
 78
     2
 67
     7
 79
     5
170
     0
171
     0
290
     0
174
     0
 93
       13
 44
0.0
173
     0
291
     1
 45
0.0
1001
ACAD
1000
AcDbSavedByObjectVersion
1070
     0
  0
VISUALSTYLE
  5
38
102
{ACAD_REACTORS
330
2A
102
}
330
2A
100
AcDbVisualStyle
  2
Linepattern
 70
    14
 71
     2
 72
     2
 73
     0
 90
        0
 40
-0.6
 41
-30.0
 62
     5
 63
     7
 74
     1
 91
        4
 64
     7
 65
   257
 75
     7
175
     7
 42
1.0
 92
        8
 66
     7
 43
1.0
 76
     1
 77
     6
 78
     2
 67
     7
 79
     5
170
     0
171
     0
290
     0
174
     0
 93
        1
 44
0.0
173
     0
291
     1
 45
0.0
1001
ACAD
1000
AcDbSavedByObjectVersion
1070
     0
  0
VISUALSTYLE
  5
33
102
{ACAD_REACTORS
330
2A
102
}
330
2A
100
AcDbVisualStyle
  2
Realistic
 70
     8
 71
     2
 72
     2
 73
     0
 90
        0
 40
-0.6
 41
-30.0
 62
     5
 63
     7
 74
     1
 91
        0
 64
     7
 65
   257
 75
     1
175
     1
 42
1.0
 92
        8
 66
     8
 43
1.0
 76
     1
 77
     6
 78
     2
 67
     7
 79
     5
170
     0
171
     0
290
     0
174
     0
 93
       13
 44
0.0
173
     0
291
     0
 45
0.0
1001
ACAD
1000
AcDbSavedByObjectVersion
1070
     0
  0
VISUALSTYLE
  5
37
102
{ACAD_REACTORS
330
2A
102
}
330
2A
100
AcDbVisualStyle
  2
Thicken
 70
    13
 71
     2
 72
     2
 73
     0
 90
        0
 40
-0.6
 41
-30.0
 62
     5
 63
     7
 74
     1
 91
        4
 64
     7
 65
   257
 75
     1
175
     1
 42
1.0
 92
       12
 66
     7
 43
1.0
 76
     1
 77
     6
 78
     2
 67
     7
 79
     5
170
     0
171
     0
290
     0
174
     0
 93
        1
 44
0.0
173
     0
291
     1
 45
0.0
1001
ACAD
1000
AcDbSavedByObjectVersion
1070
     0
  0
DICTIONARYVAR
  5
278
102
{ACAD_REACTORS
330
277
102
}
330
277
100
DictionaryVariables
280
     0
  1
1:1
  0
ENDSEC
  0
EOF
