ISO-10303-21;
HEADER;
/* Generated by software containing ST-Developer
 * from STEP Tools, Inc. (www.steptools.com) 
 */

FILE_DESCRIPTION(
/* description */ ('Alibre Inc.'),
/* implementation_level */ '2;1');

FILE_NAME(
/* name */ 'export-413CB9C0-011B-405F-A5BC-50BF35DA0382',
/* time_stamp */ '2021-09-12T15:10:44-04:00',
/* author */ (''),
/* organization */ (''),
/* preprocessor_version */ 'ST-DEVELOPER v17',
/* originating_system */ 'Alibre',
/* authorisation */ '');

FILE_SCHEMA (('AUTOMOTIVE_DESIGN'));
ENDSEC;

DATA;
#10=STYLED_ITEM('NAME_0',(#18),#469);
#11=MECHANICAL_DESIGN_GEOMETRIC_PRESENTATION_REPRESENTATION('NAME_0',(#10),
#33);
#12=COLOUR_RGB('',0.752941176470588,0.752941176470588,0.752941176470588);
#13=FILL_AREA_STYLE_COLOUR('NAME_0',#12);
#14=FILL_AREA_STYLE('NAME_0',(#13));
#15=SURFACE_STYLE_FILL_AREA(#14);
#16=SURFACE_SIDE_STYLE('NAME_0',(#15));
#17=SURFACE_STYLE_USAGE(.POSITIVE.,#16);
#18=PRESENTATION_STYLE_ASSIGNMENT((#17));
#19=PRODUCT_DEFINITION_CONTEXT('part definition',#26,'design');
#20=SHAPE_DEFINITION_REPRESENTATION(#21,#470);
#21=PRODUCT_DEFINITION_SHAPE('PRODUCT_VERSION_ID',
'PRODUCT_VERSION_DESCR',#22);
#22=PRODUCT_DEFINITION('PRODUCT_VERSION_ID','PRODUCT_VERSION_DESCR',#23,
#19);
#23=PRODUCT_DEFINITION_FORMATION_WITH_SPECIFIED_SOURCE(
'PRODUCT_VERSION_ID','PRODUCT_VERSION_DESCR',#28,.MADE.);
#24=PRODUCT_RELATED_PRODUCT_CATEGORY('part','part',(#28));
#25=APPLICATION_PROTOCOL_DEFINITION('Draft International Standard',
'automotive_design',1994,#26);
#26=APPLICATION_CONTEXT('automotive_Design');
#27=PRODUCT_CONTEXT('3D Mechanical Parts',#26,'mechanical');
#28=PRODUCT('','BoltArm4tc','',(#27));
#29=(
LENGTH_UNIT()
NAMED_UNIT(*)
SI_UNIT(.CENTI.,.METRE.)
);
#30=(
NAMED_UNIT(*)
PLANE_ANGLE_UNIT()
SI_UNIT($,.RADIAN.)
);
#31=(
NAMED_UNIT(*)
SI_UNIT($,.STERADIAN.)
SOLID_ANGLE_UNIT()
);
#32=UNCERTAINTY_MEASURE_WITH_UNIT(LENGTH_MEASURE(1.E-6),#29,
'DISTANCE_ACCURACY_VALUE',
'Maximum model space distance between geometric entities at asserted c
onnectivities');
#33=(
GEOMETRIC_REPRESENTATION_CONTEXT(3)
GLOBAL_UNCERTAINTY_ASSIGNED_CONTEXT((#32))
GLOBAL_UNIT_ASSIGNED_CONTEXT((#31,#30,#29))
REPRESENTATION_CONTEXT('ID1','3D')
);
#34=CYLINDRICAL_SURFACE('',#305,0.260349999999999);
#35=CYLINDRICAL_SURFACE('',#307,0.260349999999999);
#36=CYLINDRICAL_SURFACE('',#309,0.20193);
#37=CYLINDRICAL_SURFACE('',#311,0.20193);
#38=CIRCLE('',#299,0.20193);
#39=CIRCLE('',#300,0.20193);
#40=CIRCLE('',#301,0.260349999999999);
#41=CIRCLE('',#302,0.260349999999999);
#42=CIRCLE('',#306,0.260349999999999);
#43=CIRCLE('',#308,0.260349999999999);
#44=CIRCLE('',#310,0.20193);
#45=CIRCLE('',#312,0.20193);
#46=VERTEX_POINT('',#384);
#47=VERTEX_POINT('',#385);
#48=VERTEX_POINT('',#387);
#49=VERTEX_POINT('',#389);
#50=VERTEX_POINT('',#391);
#51=VERTEX_POINT('',#393);
#52=VERTEX_POINT('',#395);
#53=VERTEX_POINT('',#397);
#54=VERTEX_POINT('',#401);
#55=VERTEX_POINT('',#403);
#56=VERTEX_POINT('',#407);
#57=VERTEX_POINT('',#410);
#58=VERTEX_POINT('',#412);
#59=VERTEX_POINT('',#414);
#60=VERTEX_POINT('',#416);
#61=VERTEX_POINT('',#419);
#62=VERTEX_POINT('',#423);
#63=VERTEX_POINT('',#427);
#64=VERTEX_POINT('',#430);
#65=VERTEX_POINT('',#433);
#66=VERTEX_POINT('',#436);
#67=VERTEX_POINT('',#441);
#68=VERTEX_POINT('',#447);
#69=VERTEX_POINT('',#451);
#70=VECTOR('',#321,1.);
#71=VECTOR('',#322,1.);
#72=VECTOR('',#323,1.);
#73=VECTOR('',#324,1.);
#74=VECTOR('',#325,1.);
#75=VECTOR('',#326,1.);
#76=VECTOR('',#327,1.);
#77=VECTOR('',#328,1.);
#78=VECTOR('',#330,1.);
#79=VECTOR('',#331,1.);
#80=VECTOR('',#332,1.);
#81=VECTOR('',#334,1.);
#82=VECTOR('',#335,1.);
#83=VECTOR('',#345,1.);
#84=VECTOR('',#346,1.);
#85=VECTOR('',#348,1.);
#86=VECTOR('',#349,1.);
#87=VECTOR('',#367,1.);
#88=VECTOR('',#369,1.);
#89=VECTOR('',#370,1.);
#90=VECTOR('',#372,1.);
#91=VECTOR('',#374,1.);
#92=VECTOR('',#375,1.);
#93=VECTOR('',#377,1.);
#94=VECTOR('',#378,1.);
#95=VECTOR('',#380,1.);
#96=LINE('',#383,#70);
#97=LINE('',#386,#71);
#98=LINE('',#388,#72);
#99=LINE('',#390,#73);
#100=LINE('',#392,#74);
#101=LINE('',#394,#75);
#102=LINE('',#396,#76);
#103=LINE('',#398,#77);
#104=LINE('',#400,#78);
#105=LINE('',#402,#79);
#106=LINE('',#404,#80);
#107=LINE('',#406,#81);
#108=LINE('',#408,#82);
#109=LINE('',#418,#83);
#110=LINE('',#420,#84);
#111=LINE('',#422,#85);
#112=LINE('',#424,#86);
#113=LINE('',#438,#87);
#114=LINE('',#440,#88);
#115=LINE('',#442,#89);
#116=LINE('',#444,#90);
#117=LINE('',#446,#91);
#118=LINE('',#448,#92);
#119=LINE('',#450,#93);
#120=LINE('',#452,#94);
#121=LINE('',#454,#95);
#122=EDGE_CURVE('',#46,#47,#96,.T.);
#123=EDGE_CURVE('',#48,#46,#97,.T.);
#124=EDGE_CURVE('',#49,#48,#98,.T.);
#125=EDGE_CURVE('',#50,#49,#99,.T.);
#126=EDGE_CURVE('',#51,#50,#100,.T.);
#127=EDGE_CURVE('',#52,#51,#101,.T.);
#128=EDGE_CURVE('',#53,#52,#102,.T.);
#129=EDGE_CURVE('',#47,#53,#103,.T.);
#130=EDGE_CURVE('',#50,#54,#104,.T.);
#131=EDGE_CURVE('',#55,#54,#105,.T.);
#132=EDGE_CURVE('',#55,#51,#106,.T.);
#133=EDGE_CURVE('',#56,#49,#107,.T.);
#134=EDGE_CURVE('',#54,#56,#108,.T.);
#135=EDGE_CURVE('',#57,#57,#38,.T.);
#136=EDGE_CURVE('',#58,#58,#39,.T.);
#137=EDGE_CURVE('',#59,#59,#40,.T.);
#138=EDGE_CURVE('',#60,#60,#41,.T.);
#139=EDGE_CURVE('',#48,#61,#109,.T.);
#140=EDGE_CURVE('',#56,#61,#110,.T.);
#141=EDGE_CURVE('',#62,#46,#111,.T.);
#142=EDGE_CURVE('',#61,#62,#112,.T.);
#143=EDGE_CURVE('',#63,#63,#42,.T.);
#144=EDGE_CURVE('',#64,#64,#43,.T.);
#145=EDGE_CURVE('',#65,#65,#44,.T.);
#146=EDGE_CURVE('',#66,#66,#45,.T.);
#147=EDGE_CURVE('',#61,#55,#113,.T.);
#148=EDGE_CURVE('',#55,#67,#114,.T.);
#149=EDGE_CURVE('',#52,#67,#115,.T.);
#150=EDGE_CURVE('',#67,#62,#116,.T.);
#151=EDGE_CURVE('',#68,#67,#117,.T.);
#152=EDGE_CURVE('',#68,#53,#118,.T.);
#153=EDGE_CURVE('',#47,#69,#119,.T.);
#154=EDGE_CURVE('',#69,#62,#120,.T.);
#155=EDGE_CURVE('',#69,#68,#121,.T.);
#156=ORIENTED_EDGE('',*,*,#122,.F.);
#157=ORIENTED_EDGE('',*,*,#123,.F.);
#158=ORIENTED_EDGE('',*,*,#124,.F.);
#159=ORIENTED_EDGE('',*,*,#125,.F.);
#160=ORIENTED_EDGE('',*,*,#126,.F.);
#161=ORIENTED_EDGE('',*,*,#127,.F.);
#162=ORIENTED_EDGE('',*,*,#128,.F.);
#163=ORIENTED_EDGE('',*,*,#129,.F.);
#164=ORIENTED_EDGE('',*,*,#126,.T.);
#165=ORIENTED_EDGE('',*,*,#130,.T.);
#166=ORIENTED_EDGE('',*,*,#131,.F.);
#167=ORIENTED_EDGE('',*,*,#132,.T.);
#168=ORIENTED_EDGE('',*,*,#125,.T.);
#169=ORIENTED_EDGE('',*,*,#133,.F.);
#170=ORIENTED_EDGE('',*,*,#134,.F.);
#171=ORIENTED_EDGE('',*,*,#130,.F.);
#172=ORIENTED_EDGE('',*,*,#135,.T.);
#173=ORIENTED_EDGE('',*,*,#136,.T.);
#174=ORIENTED_EDGE('',*,*,#137,.T.);
#175=ORIENTED_EDGE('',*,*,#138,.T.);
#176=ORIENTED_EDGE('',*,*,#124,.T.);
#177=ORIENTED_EDGE('',*,*,#139,.T.);
#178=ORIENTED_EDGE('',*,*,#140,.F.);
#179=ORIENTED_EDGE('',*,*,#133,.T.);
#180=ORIENTED_EDGE('',*,*,#123,.T.);
#181=ORIENTED_EDGE('',*,*,#141,.F.);
#182=ORIENTED_EDGE('',*,*,#142,.F.);
#183=ORIENTED_EDGE('',*,*,#139,.F.);
#184=ORIENTED_EDGE('',*,*,#138,.F.);
#185=ORIENTED_EDGE('',*,*,#143,.F.);
#186=ORIENTED_EDGE('',*,*,#137,.F.);
#187=ORIENTED_EDGE('',*,*,#144,.F.);
#188=ORIENTED_EDGE('',*,*,#136,.F.);
#189=ORIENTED_EDGE('',*,*,#145,.F.);
#190=ORIENTED_EDGE('',*,*,#135,.F.);
#191=ORIENTED_EDGE('',*,*,#146,.F.);
#192=ORIENTED_EDGE('',*,*,#147,.T.);
#193=ORIENTED_EDGE('',*,*,#131,.T.);
#194=ORIENTED_EDGE('',*,*,#134,.T.);
#195=ORIENTED_EDGE('',*,*,#140,.T.);
#196=ORIENTED_EDGE('',*,*,#127,.T.);
#197=ORIENTED_EDGE('',*,*,#132,.F.);
#198=ORIENTED_EDGE('',*,*,#148,.T.);
#199=ORIENTED_EDGE('',*,*,#149,.F.);
#200=ORIENTED_EDGE('',*,*,#147,.F.);
#201=ORIENTED_EDGE('',*,*,#142,.T.);
#202=ORIENTED_EDGE('',*,*,#150,.F.);
#203=ORIENTED_EDGE('',*,*,#148,.F.);
#204=ORIENTED_EDGE('',*,*,#128,.T.);
#205=ORIENTED_EDGE('',*,*,#149,.T.);
#206=ORIENTED_EDGE('',*,*,#151,.F.);
#207=ORIENTED_EDGE('',*,*,#152,.T.);
#208=ORIENTED_EDGE('',*,*,#122,.T.);
#209=ORIENTED_EDGE('',*,*,#153,.T.);
#210=ORIENTED_EDGE('',*,*,#154,.T.);
#211=ORIENTED_EDGE('',*,*,#141,.T.);
#212=ORIENTED_EDGE('',*,*,#150,.T.);
#213=ORIENTED_EDGE('',*,*,#154,.F.);
#214=ORIENTED_EDGE('',*,*,#155,.T.);
#215=ORIENTED_EDGE('',*,*,#151,.T.);
#216=ORIENTED_EDGE('',*,*,#129,.T.);
#217=ORIENTED_EDGE('',*,*,#152,.F.);
#218=ORIENTED_EDGE('',*,*,#155,.F.);
#219=ORIENTED_EDGE('',*,*,#153,.F.);
#220=ORIENTED_EDGE('',*,*,#143,.T.);
#221=ORIENTED_EDGE('',*,*,#144,.T.);
#222=ORIENTED_EDGE('',*,*,#145,.T.);
#223=ORIENTED_EDGE('',*,*,#146,.T.);
#224=EDGE_LOOP('',(#156,#157,#158,#159,#160,#161,#162,#163));
#225=EDGE_LOOP('',(#164,#165,#166,#167));
#226=EDGE_LOOP('',(#168,#169,#170,#171));
#227=EDGE_LOOP('',(#172));
#228=EDGE_LOOP('',(#173));
#229=EDGE_LOOP('',(#174));
#230=EDGE_LOOP('',(#175));
#231=EDGE_LOOP('',(#176,#177,#178,#179));
#232=EDGE_LOOP('',(#180,#181,#182,#183));
#233=EDGE_LOOP('',(#184));
#234=EDGE_LOOP('',(#185));
#235=EDGE_LOOP('',(#186));
#236=EDGE_LOOP('',(#187));
#237=EDGE_LOOP('',(#188));
#238=EDGE_LOOP('',(#189));
#239=EDGE_LOOP('',(#190));
#240=EDGE_LOOP('',(#191));
#241=EDGE_LOOP('',(#192,#193,#194,#195));
#242=EDGE_LOOP('',(#196,#197,#198,#199));
#243=EDGE_LOOP('',(#200,#201,#202,#203));
#244=EDGE_LOOP('',(#204,#205,#206,#207));
#245=EDGE_LOOP('',(#208,#209,#210,#211));
#246=EDGE_LOOP('',(#212,#213,#214,#215));
#247=EDGE_LOOP('',(#216,#217,#218,#219));
#248=EDGE_LOOP('',(#220));
#249=EDGE_LOOP('',(#221));
#250=EDGE_LOOP('',(#222));
#251=EDGE_LOOP('',(#223));
#252=FACE_BOUND('',#224,.T.);
#253=FACE_BOUND('',#225,.T.);
#254=FACE_BOUND('',#226,.T.);
#255=FACE_BOUND('',#227,.T.);
#256=FACE_BOUND('',#228,.T.);
#257=FACE_BOUND('',#229,.T.);
#258=FACE_BOUND('',#230,.T.);
#259=FACE_BOUND('',#231,.T.);
#260=FACE_BOUND('',#232,.T.);
#261=FACE_BOUND('',#233,.T.);
#262=FACE_BOUND('',#234,.T.);
#263=FACE_BOUND('',#235,.T.);
#264=FACE_BOUND('',#236,.T.);
#265=FACE_BOUND('',#237,.T.);
#266=FACE_BOUND('',#238,.T.);
#267=FACE_BOUND('',#239,.T.);
#268=FACE_BOUND('',#240,.T.);
#269=FACE_BOUND('',#241,.T.);
#270=FACE_BOUND('',#242,.T.);
#271=FACE_BOUND('',#243,.T.);
#272=FACE_BOUND('',#244,.T.);
#273=FACE_BOUND('',#245,.T.);
#274=FACE_BOUND('',#246,.T.);
#275=FACE_BOUND('',#247,.T.);
#276=FACE_BOUND('',#248,.T.);
#277=FACE_BOUND('',#249,.T.);
#278=FACE_BOUND('',#250,.T.);
#279=FACE_BOUND('',#251,.T.);
#280=ADVANCED_FACE('',(#252),#456,.F.);
#281=ADVANCED_FACE('',(#253),#457,.T.);
#282=ADVANCED_FACE('',(#254,#255,#256,#257,#258),#458,.F.);
#283=ADVANCED_FACE('',(#259),#459,.T.);
#284=ADVANCED_FACE('',(#260),#460,.T.);
#285=ADVANCED_FACE('',(#261,#262),#34,.F.);
#286=ADVANCED_FACE('',(#263,#264),#35,.F.);
#287=ADVANCED_FACE('',(#265,#266),#36,.F.);
#288=ADVANCED_FACE('',(#267,#268),#37,.F.);
#289=ADVANCED_FACE('',(#269),#461,.T.);
#290=ADVANCED_FACE('',(#270),#462,.T.);
#291=ADVANCED_FACE('',(#271),#463,.T.);
#292=ADVANCED_FACE('',(#272),#464,.T.);
#293=ADVANCED_FACE('',(#273),#465,.T.);
#294=ADVANCED_FACE('',(#274),#466,.T.);
#295=ADVANCED_FACE('',(#275,#276,#277,#278,#279),#467,.T.);
#296=AXIS2_PLACEMENT_3D('',#382,#320,$);
#297=AXIS2_PLACEMENT_3D('',#399,#329,$);
#298=AXIS2_PLACEMENT_3D('',#405,#333,$);
#299=AXIS2_PLACEMENT_3D('',#409,#336,#337);
#300=AXIS2_PLACEMENT_3D('',#411,#338,#339);
#301=AXIS2_PLACEMENT_3D('',#413,#340,#341);
#302=AXIS2_PLACEMENT_3D('',#415,#342,#343);
#303=AXIS2_PLACEMENT_3D('',#417,#344,$);
#304=AXIS2_PLACEMENT_3D('',#421,#347,$);
#305=AXIS2_PLACEMENT_3D('',#425,#350,#351);
#306=AXIS2_PLACEMENT_3D('',#426,#352,#353);
#307=AXIS2_PLACEMENT_3D('',#428,#354,#355);
#308=AXIS2_PLACEMENT_3D('',#429,#356,#357);
#309=AXIS2_PLACEMENT_3D('',#431,#358,#359);
#310=AXIS2_PLACEMENT_3D('',#432,#360,#361);
#311=AXIS2_PLACEMENT_3D('',#434,#362,#363);
#312=AXIS2_PLACEMENT_3D('',#435,#364,#365);
#313=AXIS2_PLACEMENT_3D('',#437,#366,$);
#314=AXIS2_PLACEMENT_3D('',#439,#368,$);
#315=AXIS2_PLACEMENT_3D('',#443,#371,$);
#316=AXIS2_PLACEMENT_3D('',#445,#373,$);
#317=AXIS2_PLACEMENT_3D('',#449,#376,$);
#318=AXIS2_PLACEMENT_3D('',#453,#379,$);
#319=AXIS2_PLACEMENT_3D('',#455,#381,$);
#320=DIRECTION('',(0.,0.,-1.));
#321=DIRECTION('',(0.707106781186548,-0.707106781186547,0.));
#322=DIRECTION('',(1.,0.,0.));
#323=DIRECTION('',(0.707106781186548,0.707106781186547,0.));
#324=DIRECTION('',(0.,1.,0.));
#325=DIRECTION('',(-0.707106781186549,0.707106781186546,0.));
#326=DIRECTION('',(-1.,0.,0.));
#327=DIRECTION('',(-0.707106781186549,-0.707106781186546,0.));
#328=DIRECTION('',(0.,-1.,0.));
#329=DIRECTION('',(-0.707106781186546,-0.707106781186549,-1.31728170532605E-16));
#330=DIRECTION('',(0.,1.86291765313806E-16,-1.));
#331=DIRECTION('',(-0.577350269189624,0.577350269189622,0.577350269189631));
#332=DIRECTION('',(0.,-1.86291765313806E-16,1.));
#333=DIRECTION('',(1.,0.,0.));
#334=DIRECTION('',(0.,-1.90732659921287E-16,1.));
#335=DIRECTION('',(0.,1.,0.));
#336=DIRECTION('',(1.,0.,0.));
#337=DIRECTION('',(0.,0.,0.20193));
#338=DIRECTION('',(1.,0.,0.));
#339=DIRECTION('',(0.,0.,0.20193));
#340=DIRECTION('',(1.,0.,0.));
#341=DIRECTION('',(0.,0.,0.260349999999999));
#342=DIRECTION('',(1.,0.,0.));
#343=DIRECTION('',(0.,0.,0.260349999999999));
#344=DIRECTION('',(-0.707106781186547,0.707106781186548,1.34868357224089E-16));
#345=DIRECTION('',(0.,1.90732659921287E-16,-1.));
#346=DIRECTION('',(0.577350269189623,0.577350269189623,-0.57735026918963));
#347=DIRECTION('',(0.,1.,1.90732659921287E-16));
#348=DIRECTION('',(0.,-1.90732659921287E-16,1.));
#349=DIRECTION('',(1.,0.,0.));
#350=DIRECTION('',(-1.,0.,0.));
#351=DIRECTION('',(0.,0.,0.260349999999999));
#352=DIRECTION('',(-1.,0.,0.));
#353=DIRECTION('',(0.,0.,0.260349999999999));
#354=DIRECTION('',(-1.,0.,0.));
#355=DIRECTION('',(0.,0.,0.260349999999999));
#356=DIRECTION('',(-1.,0.,0.));
#357=DIRECTION('',(0.,0.,0.260349999999999));
#358=DIRECTION('',(-1.,0.,0.));
#359=DIRECTION('',(0.,0.,0.20193));
#360=DIRECTION('',(-1.,0.,0.));
#361=DIRECTION('',(0.,0.,0.20193));
#362=DIRECTION('',(-1.,0.,0.));
#363=DIRECTION('',(0.,0.,0.20193));
#364=DIRECTION('',(-1.,0.,0.));
#365=DIRECTION('',(0.,0.,0.20193));
#366=DIRECTION('',(-0.707106781186552,0.,-0.707106781186543));
#367=DIRECTION('',(0.,-1.,0.));
#368=DIRECTION('',(0.,-1.,-1.86291765313806E-16));
#369=DIRECTION('',(1.,0.,0.));
#370=DIRECTION('',(0.,1.86291765313806E-16,-1.));
#371=DIRECTION('',(0.,0.,-1.));
#372=DIRECTION('',(0.,1.,0.));
#373=DIRECTION('',(0.707106781186546,-0.707106781186549,-1.31728170532605E-16));
#374=DIRECTION('',(-0.577350269189624,-0.577350269189622,-0.577350269189631));
#375=DIRECTION('',(0.,-1.86291765313806E-16,1.));
#376=DIRECTION('',(0.707106781186547,0.707106781186548,1.34868357224089E-16));
#377=DIRECTION('',(0.,1.90732659921287E-16,-1.));
#378=DIRECTION('',(-0.577350269189624,0.577350269189623,-0.577350269189631));
#379=DIRECTION('',(0.707106781186552,0.,-0.707106781186543));
#380=DIRECTION('',(0.,-1.,0.));
#381=DIRECTION('',(1.,0.,0.));
#382=CARTESIAN_POINT('',(-38.6952503032867,-0.569497666855204,24.28875));
#383=CARTESIAN_POINT('',(-9.15996315910787,10.0616631591079,24.28875));
#384=CARTESIAN_POINT('',(0.2667,0.635000000000002,24.28875));
#385=CARTESIAN_POINT('',(0.3175,0.584200000000002,24.28875));
#386=CARTESIAN_POINT('',(-19.3476251516433,0.635000000000002,24.28875));
#387=CARTESIAN_POINT('',(0.0508,0.635000000000002,24.28875));
#388=CARTESIAN_POINT('',(-9.94953699253547,-9.36533699253547,24.28875));
#389=CARTESIAN_POINT('',(0.,0.584200000000002,24.28875));
#390=CARTESIAN_POINT('',(0.,-0.2847488334276,24.28875));
#391=CARTESIAN_POINT('',(0.,-0.584199999999998,24.28875));
#392=CARTESIAN_POINT('',(-9.66478815910789,9.08058815910787,24.28875));
#393=CARTESIAN_POINT('',(0.0508,-0.634999999999998,24.28875));
#394=CARTESIAN_POINT('',(-19.3476251516433,-0.634999999999998,24.28875));
#395=CARTESIAN_POINT('',(0.2667,-0.634999999999998,24.28875));
#396=CARTESIAN_POINT('',(-9.4447119925355,-10.3464119925355,24.28875));
#397=CARTESIAN_POINT('',(0.3175,-0.584199999999998,24.28875));
#398=CARTESIAN_POINT('',(0.317499999999999,-0.2847488334276,24.28875));
#399=CARTESIAN_POINT('',(0.0254,-0.609599999999997,21.8789249996948));
#400=CARTESIAN_POINT('',(0.,-0.584199999999998,21.8789249996948));
#401=CARTESIAN_POINT('',(0.,-0.584199999999993,-1.83197500122061));
#402=CARTESIAN_POINT('',(0.0508,-0.634999999999993,-1.88277500122061));
#403=CARTESIAN_POINT('',(0.0508,-0.634999999999993,-1.88277500122061));
#404=CARTESIAN_POINT('',(0.0508,-0.634999999999997,21.8789249996948));
#405=CARTESIAN_POINT('',(0.,3.49720252756924E-15,16.6401749993897));
#406=CARTESIAN_POINT('',(0.,0.584200000000004,12.6174499990845));
#407=CARTESIAN_POINT('',(0.,0.584200000000007,-1.83197500122061));
#408=CARTESIAN_POINT('',(0.,5.24580379135386E-15,-1.83197500122061));
#409=CARTESIAN_POINT('',(0.,0.,-1.42875));
#410=CARTESIAN_POINT('',(0.,2.47292928151825E-17,-1.63068));
#411=CARTESIAN_POINT('',(0.,0.,-0.47625));
#412=CARTESIAN_POINT('',(0.,2.47292928151825E-17,-0.67818));
#413=CARTESIAN_POINT('',(0.,6.15521712375375E-15,18.811875));
#414=CARTESIAN_POINT('',(0.,6.18710080316955E-15,18.551525));
#415=CARTESIAN_POINT('',(0.,-5.85213515375081E-14,23.711535));
#416=CARTESIAN_POINT('',(0.,-5.84894678580922E-14,23.451185));
#417=CARTESIAN_POINT('',(0.0254,0.609600000000004,12.6174499990845));
#418=CARTESIAN_POINT('',(0.0508,0.635000000000004,12.6174499990845));
#419=CARTESIAN_POINT('',(0.0508,0.635000000000007,-1.88277500122061));
#420=CARTESIAN_POINT('',(0.,0.584200000000007,-1.83197500122061));
#421=CARTESIAN_POINT('',(0.,0.635000000000005,8.5947249987794));
#422=CARTESIAN_POINT('',(0.2667,0.635000000000004,12.6174499990845));
#423=CARTESIAN_POINT('',(0.2667,0.635000000000007,-1.88277500122061));
#424=CARTESIAN_POINT('',(0.,0.635000000000007,-1.88277500122061));
#425=CARTESIAN_POINT('',(0.3175,-5.85213515375081E-14,23.711535));
#426=CARTESIAN_POINT('',(0.3175,-5.85213515375081E-14,23.711535));
#427=CARTESIAN_POINT('',(0.3175,-5.85213515375081E-14,23.971885));
#428=CARTESIAN_POINT('',(0.3175,6.15521712375375E-15,18.811875));
#429=CARTESIAN_POINT('',(0.3175,6.15521712375375E-15,18.811875));
#430=CARTESIAN_POINT('',(0.3175,6.15521712375375E-15,19.072225));
#431=CARTESIAN_POINT('',(0.3175,0.,-0.47625));
#432=CARTESIAN_POINT('',(0.3175,0.,-0.47625));
#433=CARTESIAN_POINT('',(0.3175,0.,-0.27432));
#434=CARTESIAN_POINT('',(0.3175,0.,-1.42875));
#435=CARTESIAN_POINT('',(0.3175,0.,-1.42875));
#436=CARTESIAN_POINT('',(0.3175,0.,-1.22682));
#437=CARTESIAN_POINT('',(0.0254,5.24580379135386E-15,-1.85737500122061));
#438=CARTESIAN_POINT('',(0.0508,5.24580379135386E-15,-1.88277500122061));
#439=CARTESIAN_POINT('',(0.,-0.634999999999998,27.117675));
#440=CARTESIAN_POINT('',(0.,-0.634999999999993,-1.88277500122061));
#441=CARTESIAN_POINT('',(0.2667,-0.634999999999993,-1.88277500122061));
#442=CARTESIAN_POINT('',(0.2667,-0.634999999999997,21.8789249996948));
#443=CARTESIAN_POINT('',(0.,6.99440505513849E-15,-1.88277500122061));
#444=CARTESIAN_POINT('',(0.2667,5.24580379135386E-15,-1.88277500122061));
#445=CARTESIAN_POINT('',(0.2921,-0.609599999999997,21.8789249996948));
#446=CARTESIAN_POINT('',(0.3175,-0.584199999999993,-1.83197500122061));
#447=CARTESIAN_POINT('',(0.3175,-0.584199999999993,-1.83197500122061));
#448=CARTESIAN_POINT('',(0.3175,-0.584199999999998,21.8789249996948));
#449=CARTESIAN_POINT('',(0.2921,0.609600000000004,12.6174499990845));
#450=CARTESIAN_POINT('',(0.3175,0.584200000000004,12.6174499990845));
#451=CARTESIAN_POINT('',(0.3175,0.584200000000007,-1.83197500122061));
#452=CARTESIAN_POINT('',(0.3175,0.584200000000007,-1.83197500122061));
#453=CARTESIAN_POINT('',(0.2921,5.24580379135386E-15,-1.85737500122061));
#454=CARTESIAN_POINT('',(0.3175,5.24580379135386E-15,-1.83197500122061));
#455=CARTESIAN_POINT('',(0.3175,3.49720252756924E-15,16.6401749993897));
#456=PLANE('',#296);
#457=PLANE('',#297);
#458=PLANE('',#298);
#459=PLANE('',#303);
#460=PLANE('',#304);
#461=PLANE('',#313);
#462=PLANE('',#314);
#463=PLANE('',#315);
#464=PLANE('',#316);
#465=PLANE('',#317);
#466=PLANE('',#318);
#467=PLANE('',#319);
#468=CLOSED_SHELL('',(#280,#281,#282,#283,#284,#285,#286,#287,#288,#289,
#290,#291,#292,#293,#294,#295));
#469=MANIFOLD_SOLID_BREP('',#468);
#470=ADVANCED_BREP_SHAPE_REPRESENTATION('',(#469),#33);
ENDSEC;
END-ISO-10303-21;
